ISO-10303-21;
HEADER;
/* Generated by software containing ST-Developer
 * from STEP Tools, Inc. (www.steptools.com) 
 */
/* OPTION: strings as raw bytes, not using required /X/ escapes */

FILE_DESCRIPTION(
/* description */ ('Unknown',
'CAx-IF Rec.Pracs.---Representation and Presentation of Product Manufa
cturing Information (PMI)---4.0---2014-10-13',
'CAx-IF Rec.Pracs.---3D Tessellated Geometry---0.4---2014-09-14','2;1'),

/* implementation_level */ '2;1');

FILE_NAME(
/* name */ '501373_560952-M8x1',
/* time_stamp */ '2023-09-27T09:21:28+02:00',
/* author */ ('Unknown'),
/* organization */ ('Unknown'),
/* preprocessor_version */ 'ST-DEVELOPER v16.7',
/* originating_system */ 'Solid Edge',
/* authorisation */ 'Unknown');

FILE_SCHEMA (('AP242_MANAGED_MODEL_BASED_3D_ENGINEERING_MIM_LF { 1 0 10303 442 1 1 4 }'));
ENDSEC;

DATA;
#10=SHAPE_REPRESENTATION_RELATIONSHIP('','',#499,#11);
#11=ADVANCED_BREP_SHAPE_REPRESENTATION('',(#497),#745);
#12=CONICAL_SURFACE('',#520,2.26226963048871,0.0300196631343025);
#13=CONICAL_SURFACE('',#535,3.7,0.785398163397448);
#14=CONICAL_SURFACE('',#536,4.,0.785398163397448);
#15=VERTEX_LOOP('',#188);
#16=VERTEX_LOOP('',#189);
#17=PLANE('',#515);
#18=PLANE('',#516);
#19=PLANE('',#518);
#20=PLANE('',#522);
#21=PLANE('',#526);
#22=PLANE('',#531);
#23=PLANE('',#537);
#24=PLANE('',#538);
#25=PLANE('',#539);
#26=PLANE('',#540);
#27=PLANE('',#541);
#28=PLANE('',#542);
#29=PLANE('',#543);
#30=PLANE('',#544);
#31=CIRCLE('',#502,4.725);
#32=CIRCLE('',#503,4.725);
#33=CIRCLE('',#504,4.725);
#34=CIRCLE('',#505,4.725);
#35=CIRCLE('',#506,4.725);
#36=CIRCLE('',#507,4.725);
#37=CIRCLE('',#509,4.05);
#38=CIRCLE('',#510,4.05);
#39=CIRCLE('',#511,4.05);
#40=CIRCLE('',#512,4.05);
#41=CIRCLE('',#513,4.05);
#42=CIRCLE('',#514,4.05);
#43=CIRCLE('',#517,3.5);
#44=CIRCLE('',#519,2.26226963048871);
#45=CIRCLE('',#521,1.98);
#46=CIRCLE('',#523,1.4);
#47=CIRCLE('',#525,1.4);
#48=CIRCLE('',#527,3.7);
#49=CIRCLE('',#529,4.);
#50=CIRCLE('',#530,4.);
#51=CIRCLE('',#532,3.7);
#52=CIRCLE('',#533,3.5);
#53=ORIENTED_EDGE('',*,*,#129,.T.);
#54=ORIENTED_EDGE('',*,*,#130,.F.);
#55=ORIENTED_EDGE('',*,*,#131,.F.);
#56=ORIENTED_EDGE('',*,*,#132,.F.);
#57=ORIENTED_EDGE('',*,*,#133,.F.);
#58=ORIENTED_EDGE('',*,*,#134,.T.);
#59=ORIENTED_EDGE('',*,*,#135,.F.);
#60=ORIENTED_EDGE('',*,*,#136,.T.);
#61=ORIENTED_EDGE('',*,*,#137,.F.);
#62=ORIENTED_EDGE('',*,*,#138,.F.);
#63=ORIENTED_EDGE('',*,*,#139,.T.);
#64=ORIENTED_EDGE('',*,*,#140,.F.);
#65=ORIENTED_EDGE('',*,*,#141,.F.);
#66=ORIENTED_EDGE('',*,*,#142,.T.);
#67=ORIENTED_EDGE('',*,*,#143,.F.);
#68=ORIENTED_EDGE('',*,*,#144,.F.);
#69=ORIENTED_EDGE('',*,*,#145,.T.);
#70=ORIENTED_EDGE('',*,*,#146,.F.);
#71=ORIENTED_EDGE('',*,*,#147,.F.);
#72=ORIENTED_EDGE('',*,*,#148,.F.);
#73=ORIENTED_EDGE('',*,*,#133,.T.);
#74=ORIENTED_EDGE('',*,*,#139,.F.);
#75=ORIENTED_EDGE('',*,*,#134,.F.);
#76=ORIENTED_EDGE('',*,*,#149,.T.);
#77=ORIENTED_EDGE('',*,*,#150,.F.);
#78=ORIENTED_EDGE('',*,*,#140,.T.);
#79=ORIENTED_EDGE('',*,*,#151,.F.);
#80=ORIENTED_EDGE('',*,*,#150,.T.);
#81=ORIENTED_EDGE('',*,*,#152,.F.);
#82=ORIENTED_EDGE('',*,*,#151,.T.);
#83=ORIENTED_EDGE('',*,*,#153,.F.);
#84=ORIENTED_EDGE('',*,*,#152,.T.);
#85=ORIENTED_EDGE('',*,*,#154,.T.);
#86=ORIENTED_EDGE('',*,*,#153,.T.);
#87=ORIENTED_EDGE('',*,*,#155,.T.);
#88=ORIENTED_EDGE('',*,*,#156,.T.);
#89=ORIENTED_EDGE('',*,*,#157,.T.);
#90=ORIENTED_EDGE('',*,*,#158,.F.);
#91=ORIENTED_EDGE('',*,*,#149,.F.);
#92=ORIENTED_EDGE('',*,*,#158,.T.);
#93=ORIENTED_EDGE('',*,*,#155,.F.);
#94=ORIENTED_EDGE('',*,*,#157,.F.);
#95=ORIENTED_EDGE('',*,*,#154,.F.);
#96=ORIENTED_EDGE('',*,*,#156,.F.);
#97=ORIENTED_EDGE('',*,*,#130,.T.);
#98=ORIENTED_EDGE('',*,*,#159,.T.);
#99=ORIENTED_EDGE('',*,*,#141,.T.);
#100=ORIENTED_EDGE('',*,*,#160,.F.);
#101=ORIENTED_EDGE('',*,*,#132,.T.);
#102=ORIENTED_EDGE('',*,*,#161,.T.);
#103=ORIENTED_EDGE('',*,*,#143,.T.);
#104=ORIENTED_EDGE('',*,*,#162,.F.);
#105=ORIENTED_EDGE('',*,*,#131,.T.);
#106=ORIENTED_EDGE('',*,*,#160,.T.);
#107=ORIENTED_EDGE('',*,*,#144,.T.);
#108=ORIENTED_EDGE('',*,*,#161,.F.);
#109=ORIENTED_EDGE('',*,*,#162,.T.);
#110=ORIENTED_EDGE('',*,*,#142,.F.);
#111=ORIENTED_EDGE('',*,*,#159,.F.);
#112=ORIENTED_EDGE('',*,*,#129,.F.);
#113=ORIENTED_EDGE('',*,*,#135,.T.);
#114=ORIENTED_EDGE('',*,*,#163,.T.);
#115=ORIENTED_EDGE('',*,*,#146,.T.);
#116=ORIENTED_EDGE('',*,*,#164,.F.);
#117=ORIENTED_EDGE('',*,*,#138,.T.);
#118=ORIENTED_EDGE('',*,*,#165,.T.);
#119=ORIENTED_EDGE('',*,*,#147,.T.);
#120=ORIENTED_EDGE('',*,*,#163,.F.);
#121=ORIENTED_EDGE('',*,*,#137,.T.);
#122=ORIENTED_EDGE('',*,*,#166,.T.);
#123=ORIENTED_EDGE('',*,*,#148,.T.);
#124=ORIENTED_EDGE('',*,*,#165,.F.);
#125=ORIENTED_EDGE('',*,*,#164,.T.);
#126=ORIENTED_EDGE('',*,*,#145,.F.);
#127=ORIENTED_EDGE('',*,*,#166,.F.);
#128=ORIENTED_EDGE('',*,*,#136,.F.);
#129=EDGE_CURVE('',#167,#168,#199,.F.);
#130=EDGE_CURVE('',#169,#168,#31,.T.);
#131=EDGE_CURVE('',#170,#169,#200,.F.);
#132=EDGE_CURVE('',#167,#170,#32,.T.);
#133=EDGE_CURVE('',#171,#171,#33,.T.);
#134=EDGE_CURVE('',#172,#172,#34,.T.);
#135=EDGE_CURVE('',#173,#174,#35,.T.);
#136=EDGE_CURVE('',#173,#175,#201,.T.);
#137=EDGE_CURVE('',#176,#175,#36,.T.);
#138=EDGE_CURVE('',#174,#176,#202,.T.);
#139=EDGE_CURVE('',#177,#177,#37,.F.);
#140=EDGE_CURVE('',#178,#178,#38,.T.);
#141=EDGE_CURVE('',#179,#180,#39,.F.);
#142=EDGE_CURVE('',#179,#181,#203,.T.);
#143=EDGE_CURVE('',#182,#181,#40,.F.);
#144=EDGE_CURVE('',#180,#182,#204,.T.);
#145=EDGE_CURVE('',#183,#184,#205,.F.);
#146=EDGE_CURVE('',#185,#184,#41,.F.);
#147=EDGE_CURVE('',#186,#185,#206,.F.);
#148=EDGE_CURVE('',#183,#186,#42,.F.);
#149=EDGE_CURVE('',#187,#187,#43,.T.);
#150=EDGE_CURVE('',#190,#190,#44,.T.);
#151=EDGE_CURVE('',#191,#191,#45,.T.);
#152=EDGE_CURVE('',#192,#192,#46,.T.);
#153=EDGE_CURVE('',#193,#193,#47,.T.);
#154=EDGE_CURVE('',#194,#194,#48,.F.);
#155=EDGE_CURVE('',#195,#195,#49,.T.);
#156=EDGE_CURVE('',#196,#196,#50,.T.);
#157=EDGE_CURVE('',#197,#197,#51,.F.);
#158=EDGE_CURVE('',#198,#198,#52,.T.);
#159=EDGE_CURVE('',#168,#179,#207,.T.);
#160=EDGE_CURVE('',#169,#180,#208,.T.);
#161=EDGE_CURVE('',#170,#182,#209,.T.);
#162=EDGE_CURVE('',#167,#181,#210,.T.);
#163=EDGE_CURVE('',#174,#185,#211,.T.);
#164=EDGE_CURVE('',#173,#184,#212,.T.);
#165=EDGE_CURVE('',#176,#186,#213,.T.);
#166=EDGE_CURVE('',#175,#183,#214,.T.);
#167=VERTEX_POINT('',#654);
#168=VERTEX_POINT('',#655);
#169=VERTEX_POINT('',#657);
#170=VERTEX_POINT('',#659);
#171=VERTEX_POINT('',#662);
#172=VERTEX_POINT('',#664);
#173=VERTEX_POINT('',#666);
#174=VERTEX_POINT('',#667);
#175=VERTEX_POINT('',#669);
#176=VERTEX_POINT('',#671);
#177=VERTEX_POINT('',#675);
#178=VERTEX_POINT('',#677);
#179=VERTEX_POINT('',#679);
#180=VERTEX_POINT('',#680);
#181=VERTEX_POINT('',#682);
#182=VERTEX_POINT('',#684);
#183=VERTEX_POINT('',#687);
#184=VERTEX_POINT('',#688);
#185=VERTEX_POINT('',#690);
#186=VERTEX_POINT('',#692);
#187=VERTEX_POINT('',#697);
#188=VERTEX_POINT('',#699);
#189=VERTEX_POINT('',#700);
#190=VERTEX_POINT('',#702);
#191=VERTEX_POINT('',#705);
#192=VERTEX_POINT('',#708);
#193=VERTEX_POINT('',#711);
#194=VERTEX_POINT('',#714);
#195=VERTEX_POINT('',#717);
#196=VERTEX_POINT('',#719);
#197=VERTEX_POINT('',#722);
#198=VERTEX_POINT('',#724);
#199=LINE('',#653,#215);
#200=LINE('',#658,#216);
#201=LINE('',#668,#217);
#202=LINE('',#672,#218);
#203=LINE('',#681,#219);
#204=LINE('',#685,#220);
#205=LINE('',#686,#221);
#206=LINE('',#691,#222);
#207=LINE('',#729,#223);
#208=LINE('',#730,#224);
#209=LINE('',#732,#225);
#210=LINE('',#733,#226);
#211=LINE('',#737,#227);
#212=LINE('',#738,#228);
#213=LINE('',#740,#229);
#214=LINE('',#742,#230);
#215=VECTOR('',#549,1000.);
#216=VECTOR('',#552,1000.);
#217=VECTOR('',#561,1000.);
#218=VECTOR('',#564,1000.);
#219=VECTOR('',#573,1000.);
#220=VECTOR('',#576,1000.);
#221=VECTOR('',#577,1000.);
#222=VECTOR('',#580,1000.);
#223=VECTOR('',#629,1000.);
#224=VECTOR('',#630,1000.);
#225=VECTOR('',#633,1000.);
#226=VECTOR('',#634,1000.);
#227=VECTOR('',#641,1000.);
#228=VECTOR('',#642,1000.);
#229=VECTOR('',#645,1000.);
#230=VECTOR('',#648,1000.);
#231=EDGE_LOOP('',(#53,#54,#55,#56));
#232=EDGE_LOOP('',(#57));
#233=EDGE_LOOP('',(#58));
#234=EDGE_LOOP('',(#59,#60,#61,#62));
#235=EDGE_LOOP('',(#63));
#236=EDGE_LOOP('',(#64));
#237=EDGE_LOOP('',(#65,#66,#67,#68));
#238=EDGE_LOOP('',(#69,#70,#71,#72));
#239=EDGE_LOOP('',(#73));
#240=EDGE_LOOP('',(#74));
#241=EDGE_LOOP('',(#75));
#242=EDGE_LOOP('',(#76));
#243=EDGE_LOOP('',(#77));
#244=EDGE_LOOP('',(#78));
#245=EDGE_LOOP('',(#79));
#246=EDGE_LOOP('',(#80));
#247=EDGE_LOOP('',(#81));
#248=EDGE_LOOP('',(#82));
#249=EDGE_LOOP('',(#83));
#250=EDGE_LOOP('',(#84));
#251=EDGE_LOOP('',(#85));
#252=EDGE_LOOP('',(#86));
#253=EDGE_LOOP('',(#87));
#254=EDGE_LOOP('',(#88));
#255=EDGE_LOOP('',(#89));
#256=EDGE_LOOP('',(#90));
#257=EDGE_LOOP('',(#91));
#258=EDGE_LOOP('',(#92));
#259=EDGE_LOOP('',(#93));
#260=EDGE_LOOP('',(#94));
#261=EDGE_LOOP('',(#95));
#262=EDGE_LOOP('',(#96));
#263=EDGE_LOOP('',(#97,#98,#99,#100));
#264=EDGE_LOOP('',(#101,#102,#103,#104));
#265=EDGE_LOOP('',(#105,#106,#107,#108));
#266=EDGE_LOOP('',(#109,#110,#111,#112));
#267=EDGE_LOOP('',(#113,#114,#115,#116));
#268=EDGE_LOOP('',(#117,#118,#119,#120));
#269=EDGE_LOOP('',(#121,#122,#123,#124));
#270=EDGE_LOOP('',(#125,#126,#127,#128));
#271=FACE_BOUND('',#231,.T.);
#272=FACE_BOUND('',#232,.T.);
#273=FACE_BOUND('',#233,.T.);
#274=FACE_BOUND('',#234,.T.);
#275=FACE_BOUND('',#235,.T.);
#276=FACE_BOUND('',#236,.T.);
#277=FACE_BOUND('',#237,.T.);
#278=FACE_BOUND('',#238,.T.);
#279=FACE_BOUND('',#239,.T.);
#280=FACE_BOUND('',#240,.T.);
#281=FACE_BOUND('',#241,.T.);
#282=FACE_BOUND('',#242,.T.);
#283=FACE_BOUND('',#15,.T.);
#284=FACE_BOUND('',#16,.T.);
#285=FACE_BOUND('',#243,.T.);
#286=FACE_BOUND('',#244,.T.);
#287=FACE_BOUND('',#245,.T.);
#288=FACE_BOUND('',#246,.T.);
#289=FACE_BOUND('',#247,.T.);
#290=FACE_BOUND('',#248,.T.);
#291=FACE_BOUND('',#249,.T.);
#292=FACE_BOUND('',#250,.T.);
#293=FACE_BOUND('',#251,.T.);
#294=FACE_BOUND('',#252,.T.);
#295=FACE_BOUND('',#253,.T.);
#296=FACE_BOUND('',#254,.T.);
#297=FACE_BOUND('',#255,.T.);
#298=FACE_BOUND('',#256,.T.);
#299=FACE_BOUND('',#257,.T.);
#300=FACE_BOUND('',#258,.T.);
#301=FACE_BOUND('',#259,.T.);
#302=FACE_BOUND('',#260,.T.);
#303=FACE_BOUND('',#261,.T.);
#304=FACE_BOUND('',#262,.T.);
#305=FACE_BOUND('',#263,.T.);
#306=FACE_BOUND('',#264,.T.);
#307=FACE_BOUND('',#265,.T.);
#308=FACE_BOUND('',#266,.T.);
#309=FACE_BOUND('',#267,.T.);
#310=FACE_BOUND('',#268,.T.);
#311=FACE_BOUND('',#269,.T.);
#312=FACE_BOUND('',#270,.T.);
#313=CYLINDRICAL_SURFACE('',#501,4.725);
#314=CYLINDRICAL_SURFACE('',#508,4.05);
#315=CYLINDRICAL_SURFACE('',#524,1.4);
#316=CYLINDRICAL_SURFACE('',#528,4.);
#317=CYLINDRICAL_SURFACE('',#534,3.5);
#318=STYLED_ITEM('',(#340),#474);
#319=STYLED_ITEM('',(#341),#475);
#320=STYLED_ITEM('',(#342),#476);
#321=STYLED_ITEM('',(#343),#477);
#322=STYLED_ITEM('',(#344),#478);
#323=STYLED_ITEM('',(#345),#479);
#324=STYLED_ITEM('',(#346),#480);
#325=STYLED_ITEM('',(#347),#481);
#326=STYLED_ITEM('',(#348),#482);
#327=STYLED_ITEM('',(#349),#483);
#328=STYLED_ITEM('',(#350),#484);
#329=STYLED_ITEM('',(#351),#485);
#330=STYLED_ITEM('',(#352),#486);
#331=STYLED_ITEM('',(#353),#487);
#332=STYLED_ITEM('',(#354),#488);
#333=STYLED_ITEM('',(#355),#489);
#334=STYLED_ITEM('',(#356),#490);
#335=STYLED_ITEM('',(#357),#491);
#336=STYLED_ITEM('',(#358),#492);
#337=STYLED_ITEM('',(#359),#493);
#338=STYLED_ITEM('',(#360),#494);
#339=STYLED_ITEM('',(#361),#495);
#340=PRESENTATION_STYLE_ASSIGNMENT((#362));
#341=PRESENTATION_STYLE_ASSIGNMENT((#363));
#342=PRESENTATION_STYLE_ASSIGNMENT((#364));
#343=PRESENTATION_STYLE_ASSIGNMENT((#365));
#344=PRESENTATION_STYLE_ASSIGNMENT((#366));
#345=PRESENTATION_STYLE_ASSIGNMENT((#367));
#346=PRESENTATION_STYLE_ASSIGNMENT((#368));
#347=PRESENTATION_STYLE_ASSIGNMENT((#369));
#348=PRESENTATION_STYLE_ASSIGNMENT((#370));
#349=PRESENTATION_STYLE_ASSIGNMENT((#371));
#350=PRESENTATION_STYLE_ASSIGNMENT((#372));
#351=PRESENTATION_STYLE_ASSIGNMENT((#373));
#352=PRESENTATION_STYLE_ASSIGNMENT((#374));
#353=PRESENTATION_STYLE_ASSIGNMENT((#375));
#354=PRESENTATION_STYLE_ASSIGNMENT((#376));
#355=PRESENTATION_STYLE_ASSIGNMENT((#377));
#356=PRESENTATION_STYLE_ASSIGNMENT((#378));
#357=PRESENTATION_STYLE_ASSIGNMENT((#379));
#358=PRESENTATION_STYLE_ASSIGNMENT((#380));
#359=PRESENTATION_STYLE_ASSIGNMENT((#381));
#360=PRESENTATION_STYLE_ASSIGNMENT((#382));
#361=PRESENTATION_STYLE_ASSIGNMENT((#383));
#362=SURFACE_STYLE_USAGE(.BOTH.,#384);
#363=SURFACE_STYLE_USAGE(.BOTH.,#385);
#364=SURFACE_STYLE_USAGE(.BOTH.,#386);
#365=SURFACE_STYLE_USAGE(.BOTH.,#387);
#366=SURFACE_STYLE_USAGE(.BOTH.,#388);
#367=SURFACE_STYLE_USAGE(.BOTH.,#389);
#368=SURFACE_STYLE_USAGE(.BOTH.,#390);
#369=SURFACE_STYLE_USAGE(.BOTH.,#391);
#370=SURFACE_STYLE_USAGE(.BOTH.,#392);
#371=SURFACE_STYLE_USAGE(.BOTH.,#393);
#372=SURFACE_STYLE_USAGE(.BOTH.,#394);
#373=SURFACE_STYLE_USAGE(.BOTH.,#395);
#374=SURFACE_STYLE_USAGE(.BOTH.,#396);
#375=SURFACE_STYLE_USAGE(.BOTH.,#397);
#376=SURFACE_STYLE_USAGE(.BOTH.,#398);
#377=SURFACE_STYLE_USAGE(.BOTH.,#399);
#378=SURFACE_STYLE_USAGE(.BOTH.,#400);
#379=SURFACE_STYLE_USAGE(.BOTH.,#401);
#380=SURFACE_STYLE_USAGE(.BOTH.,#402);
#381=SURFACE_STYLE_USAGE(.BOTH.,#403);
#382=SURFACE_STYLE_USAGE(.BOTH.,#404);
#383=SURFACE_STYLE_USAGE(.BOTH.,#405);
#384=SURFACE_SIDE_STYLE('',(#406));
#385=SURFACE_SIDE_STYLE('',(#407));
#386=SURFACE_SIDE_STYLE('',(#408));
#387=SURFACE_SIDE_STYLE('',(#409));
#388=SURFACE_SIDE_STYLE('',(#410));
#389=SURFACE_SIDE_STYLE('',(#411));
#390=SURFACE_SIDE_STYLE('',(#412));
#391=SURFACE_SIDE_STYLE('',(#413));
#392=SURFACE_SIDE_STYLE('',(#414));
#393=SURFACE_SIDE_STYLE('',(#415));
#394=SURFACE_SIDE_STYLE('',(#416));
#395=SURFACE_SIDE_STYLE('',(#417));
#396=SURFACE_SIDE_STYLE('',(#418));
#397=SURFACE_SIDE_STYLE('',(#419));
#398=SURFACE_SIDE_STYLE('',(#420));
#399=SURFACE_SIDE_STYLE('',(#421));
#400=SURFACE_SIDE_STYLE('',(#422));
#401=SURFACE_SIDE_STYLE('',(#423));
#402=SURFACE_SIDE_STYLE('',(#424));
#403=SURFACE_SIDE_STYLE('',(#425));
#404=SURFACE_SIDE_STYLE('',(#426));
#405=SURFACE_SIDE_STYLE('',(#427));
#406=SURFACE_STYLE_FILL_AREA(#428);
#407=SURFACE_STYLE_FILL_AREA(#429);
#408=SURFACE_STYLE_FILL_AREA(#430);
#409=SURFACE_STYLE_FILL_AREA(#431);
#410=SURFACE_STYLE_FILL_AREA(#432);
#411=SURFACE_STYLE_FILL_AREA(#433);
#412=SURFACE_STYLE_FILL_AREA(#434);
#413=SURFACE_STYLE_FILL_AREA(#435);
#414=SURFACE_STYLE_FILL_AREA(#436);
#415=SURFACE_STYLE_FILL_AREA(#437);
#416=SURFACE_STYLE_FILL_AREA(#438);
#417=SURFACE_STYLE_FILL_AREA(#439);
#418=SURFACE_STYLE_FILL_AREA(#440);
#419=SURFACE_STYLE_FILL_AREA(#441);
#420=SURFACE_STYLE_FILL_AREA(#442);
#421=SURFACE_STYLE_FILL_AREA(#443);
#422=SURFACE_STYLE_FILL_AREA(#444);
#423=SURFACE_STYLE_FILL_AREA(#445);
#424=SURFACE_STYLE_FILL_AREA(#446);
#425=SURFACE_STYLE_FILL_AREA(#447);
#426=SURFACE_STYLE_FILL_AREA(#448);
#427=SURFACE_STYLE_FILL_AREA(#449);
#428=FILL_AREA_STYLE('',(#450));
#429=FILL_AREA_STYLE('',(#451));
#430=FILL_AREA_STYLE('',(#452));
#431=FILL_AREA_STYLE('',(#453));
#432=FILL_AREA_STYLE('',(#454));
#433=FILL_AREA_STYLE('',(#455));
#434=FILL_AREA_STYLE('',(#456));
#435=FILL_AREA_STYLE('',(#457));
#436=FILL_AREA_STYLE('',(#458));
#437=FILL_AREA_STYLE('',(#459));
#438=FILL_AREA_STYLE('',(#460));
#439=FILL_AREA_STYLE('',(#461));
#440=FILL_AREA_STYLE('',(#462));
#441=FILL_AREA_STYLE('',(#463));
#442=FILL_AREA_STYLE('',(#464));
#443=FILL_AREA_STYLE('',(#465));
#444=FILL_AREA_STYLE('',(#466));
#445=FILL_AREA_STYLE('',(#467));
#446=FILL_AREA_STYLE('',(#468));
#447=FILL_AREA_STYLE('',(#469));
#448=FILL_AREA_STYLE('',(#470));
#449=FILL_AREA_STYLE('',(#471));
#450=FILL_AREA_STYLE_COLOUR('',#472);
#451=FILL_AREA_STYLE_COLOUR('',#472);
#452=FILL_AREA_STYLE_COLOUR('',#472);
#453=FILL_AREA_STYLE_COLOUR('',#472);
#454=FILL_AREA_STYLE_COLOUR('',#472);
#455=FILL_AREA_STYLE_COLOUR('',#472);
#456=FILL_AREA_STYLE_COLOUR('',#472);
#457=FILL_AREA_STYLE_COLOUR('',#472);
#458=FILL_AREA_STYLE_COLOUR('',#472);
#459=FILL_AREA_STYLE_COLOUR('',#473);
#460=FILL_AREA_STYLE_COLOUR('',#472);
#461=FILL_AREA_STYLE_COLOUR('',#472);
#462=FILL_AREA_STYLE_COLOUR('',#472);
#463=FILL_AREA_STYLE_COLOUR('',#472);
#464=FILL_AREA_STYLE_COLOUR('',#472);
#465=FILL_AREA_STYLE_COLOUR('',#472);
#466=FILL_AREA_STYLE_COLOUR('',#472);
#467=FILL_AREA_STYLE_COLOUR('',#472);
#468=FILL_AREA_STYLE_COLOUR('',#472);
#469=FILL_AREA_STYLE_COLOUR('',#472);
#470=FILL_AREA_STYLE_COLOUR('',#472);
#471=FILL_AREA_STYLE_COLOUR('',#472);
#472=COLOUR_RGB('',0.752941191196442,0.752941191196442,0.752941191196442);
#473=COLOUR_RGB('',0.396078497171402,0.941176474094391,0.450980395078659);
#474=ADVANCED_FACE('',(#271,#272,#273,#274),#313,.T.);
#475=ADVANCED_FACE('',(#275,#276,#277,#278),#314,.F.);
#476=ADVANCED_FACE('',(#279,#280),#17,.F.);
#477=ADVANCED_FACE('',(#281,#282),#18,.F.);
#478=ADVANCED_FACE('',(#283,#284,#285,#286),#19,.F.);
#479=ADVANCED_FACE('',(#287,#288),#12,.T.);
#480=ADVANCED_FACE('',(#289,#290),#20,.F.);
#481=ADVANCED_FACE('',(#291,#292),#315,.F.);
#482=ADVANCED_FACE('',(#293,#294),#21,.F.);
#483=ADVANCED_FACE('',(#295,#296),#316,.T.);
#484=ADVANCED_FACE('',(#297,#298),#22,.F.);
#485=ADVANCED_FACE('',(#299,#300),#317,.T.);
#486=ADVANCED_FACE('',(#301,#302),#13,.T.);
#487=ADVANCED_FACE('',(#303,#304),#14,.T.);
#488=ADVANCED_FACE('',(#305),#23,.T.);
#489=ADVANCED_FACE('',(#306),#24,.T.);
#490=ADVANCED_FACE('',(#307),#25,.T.);
#491=ADVANCED_FACE('',(#308),#26,.F.);
#492=ADVANCED_FACE('',(#309),#27,.T.);
#493=ADVANCED_FACE('',(#310),#28,.T.);
#494=ADVANCED_FACE('',(#311),#29,.T.);
#495=ADVANCED_FACE('',(#312),#30,.F.);
#496=CLOSED_SHELL('',(#474,#475,#476,#477,#478,#479,#480,#481,#482,#483,
#484,#485,#486,#487,#488,#489,#490,#491,#492,#493,#494,#495));
#497=MANIFOLD_SOLID_BREP('',#496);
#498=SHAPE_DEFINITION_REPRESENTATION(#750,#499);
#499=SHAPE_REPRESENTATION('501373_560952-M8x1',(#500),#745);
#500=AXIS2_PLACEMENT_3D('',#651,#545,#546);
#501=AXIS2_PLACEMENT_3D('',#652,#547,#548);
#502=AXIS2_PLACEMENT_3D('',#656,#550,#551);
#503=AXIS2_PLACEMENT_3D('',#660,#553,#554);
#504=AXIS2_PLACEMENT_3D('',#661,#555,#556);
#505=AXIS2_PLACEMENT_3D('',#663,#557,#558);
#506=AXIS2_PLACEMENT_3D('',#665,#559,#560);
#507=AXIS2_PLACEMENT_3D('',#670,#562,#563);
#508=AXIS2_PLACEMENT_3D('',#673,#565,#566);
#509=AXIS2_PLACEMENT_3D('',#674,#567,#568);
#510=AXIS2_PLACEMENT_3D('',#676,#569,#570);
#511=AXIS2_PLACEMENT_3D('',#678,#571,#572);
#512=AXIS2_PLACEMENT_3D('',#683,#574,#575);
#513=AXIS2_PLACEMENT_3D('',#689,#578,#579);
#514=AXIS2_PLACEMENT_3D('',#693,#581,#582);
#515=AXIS2_PLACEMENT_3D('',#694,#583,#584);
#516=AXIS2_PLACEMENT_3D('',#695,#585,#586);
#517=AXIS2_PLACEMENT_3D('',#696,#587,#588);
#518=AXIS2_PLACEMENT_3D('',#698,#589,#590);
#519=AXIS2_PLACEMENT_3D('',#701,#591,#592);
#520=AXIS2_PLACEMENT_3D('',#703,#593,#594);
#521=AXIS2_PLACEMENT_3D('',#704,#595,#596);
#522=AXIS2_PLACEMENT_3D('',#706,#597,#598);
#523=AXIS2_PLACEMENT_3D('',#707,#599,#600);
#524=AXIS2_PLACEMENT_3D('',#709,#601,#602);
#525=AXIS2_PLACEMENT_3D('',#710,#603,#604);
#526=AXIS2_PLACEMENT_3D('',#712,#605,#606);
#527=AXIS2_PLACEMENT_3D('',#713,#607,#608);
#528=AXIS2_PLACEMENT_3D('',#715,#609,#610);
#529=AXIS2_PLACEMENT_3D('',#716,#611,#612);
#530=AXIS2_PLACEMENT_3D('',#718,#613,#614);
#531=AXIS2_PLACEMENT_3D('',#720,#615,#616);
#532=AXIS2_PLACEMENT_3D('',#721,#617,#618);
#533=AXIS2_PLACEMENT_3D('',#723,#619,#620);
#534=AXIS2_PLACEMENT_3D('',#725,#621,#622);
#535=AXIS2_PLACEMENT_3D('',#726,#623,#624);
#536=AXIS2_PLACEMENT_3D('',#727,#625,#626);
#537=AXIS2_PLACEMENT_3D('',#728,#627,#628);
#538=AXIS2_PLACEMENT_3D('',#731,#631,#632);
#539=AXIS2_PLACEMENT_3D('',#734,#635,#636);
#540=AXIS2_PLACEMENT_3D('',#735,#637,#638);
#541=AXIS2_PLACEMENT_3D('',#736,#639,#640);
#542=AXIS2_PLACEMENT_3D('',#739,#643,#644);
#543=AXIS2_PLACEMENT_3D('',#741,#646,#647);
#544=AXIS2_PLACEMENT_3D('',#743,#649,#650);
#545=DIRECTION('',(0.,0.,1.));
#546=DIRECTION('',(1.,0.,0.));
#547=DIRECTION('',(-1.,0.,0.));
#548=DIRECTION('',(0.,0.,1.));
#549=DIRECTION('',(-1.,0.,0.));
#550=DIRECTION('',(-1.,0.,0.));
#551=DIRECTION('',(0.,0.,1.));
#552=DIRECTION('',(-1.,0.,0.));
#553=DIRECTION('',(1.,1.44560289664734E-16,0.));
#554=DIRECTION('',(-1.44560289664734E-16,1.,0.));
#555=DIRECTION('',(-1.,0.,0.));
#556=DIRECTION('',(0.,0.,1.));
#557=DIRECTION('',(-1.,0.,0.));
#558=DIRECTION('',(0.,0.,1.));
#559=DIRECTION('',(-1.,0.,0.));
#560=DIRECTION('',(0.,0.,1.));
#561=DIRECTION('',(-1.,0.,0.));
#562=DIRECTION('',(1.,-1.44560289664734E-16,0.));
#563=DIRECTION('',(1.44560289664734E-16,1.,0.));
#564=DIRECTION('',(-1.,0.,0.));
#565=DIRECTION('',(-1.,0.,0.));
#566=DIRECTION('',(0.,0.,1.));
#567=DIRECTION('',(1.,0.,0.));
#568=DIRECTION('',(0.,0.,-1.));
#569=DIRECTION('',(-1.,0.,0.));
#570=DIRECTION('',(0.,0.,1.));
#571=DIRECTION('',(-1.,0.,0.));
#572=DIRECTION('',(0.,0.,1.));
#573=DIRECTION('',(-1.,0.,0.));
#574=DIRECTION('',(1.,1.44560289664734E-16,0.));
#575=DIRECTION('',(-1.44560289664734E-16,1.,0.));
#576=DIRECTION('',(-1.,0.,0.));
#577=DIRECTION('',(-1.,0.,0.));
#578=DIRECTION('',(-1.,0.,0.));
#579=DIRECTION('',(0.,0.,1.));
#580=DIRECTION('',(-1.,0.,0.));
#581=DIRECTION('',(1.,-1.44560289664734E-16,0.));
#582=DIRECTION('',(1.44560289664734E-16,1.,0.));
#583=DIRECTION('',(1.,0.,0.));
#584=DIRECTION('',(0.,0.,-1.));
#585=DIRECTION('',(-1.,0.,0.));
#586=DIRECTION('',(0.,0.,1.));
#587=DIRECTION('',(-1.,0.,0.));
#588=DIRECTION('',(0.,0.,1.));
#589=DIRECTION('',(1.,0.,0.));
#590=DIRECTION('',(0.,0.,-1.));
#591=DIRECTION('',(-1.,0.,0.));
#592=DIRECTION('',(0.,0.,1.));
#593=DIRECTION('',(1.,0.,0.));
#594=DIRECTION('',(0.,0.,-1.));
#595=DIRECTION('',(-1.,0.,0.));
#596=DIRECTION('',(0.,0.,1.));
#597=DIRECTION('',(1.,0.,0.));
#598=DIRECTION('',(0.,0.,-1.));
#599=DIRECTION('',(-1.,0.,0.));
#600=DIRECTION('',(0.,0.,1.));
#601=DIRECTION('',(-1.,0.,0.));
#602=DIRECTION('',(0.,0.,1.));
#603=DIRECTION('',(-1.,0.,0.));
#604=DIRECTION('',(0.,0.,1.));
#605=DIRECTION('',(-1.,0.,0.));
#606=DIRECTION('',(0.,0.,1.));
#607=DIRECTION('',(-1.,0.,0.));
#608=DIRECTION('',(0.,0.,1.));
#609=DIRECTION('',(-1.,0.,0.));
#610=DIRECTION('',(0.,0.,1.));
#611=DIRECTION('',(1.,0.,0.));
#612=DIRECTION('',(0.,0.,-1.));
#613=DIRECTION('',(-1.,0.,0.));
#614=DIRECTION('',(0.,0.,1.));
#615=DIRECTION('',(1.,0.,0.));
#616=DIRECTION('',(0.,0.,-1.));
#617=DIRECTION('',(1.,0.,0.));
#618=DIRECTION('',(0.,0.,-1.));
#619=DIRECTION('',(-1.,0.,0.));
#620=DIRECTION('',(0.,0.,1.));
#621=DIRECTION('',(-1.,0.,0.));
#622=DIRECTION('',(0.,0.,1.));
#623=DIRECTION('',(1.,0.,0.));
#624=DIRECTION('',(0.,0.,-1.));
#625=DIRECTION('',(-1.,0.,0.));
#626=DIRECTION('',(0.,0.,1.));
#627=DIRECTION('',(-1.,0.,0.));
#628=DIRECTION('',(0.,0.,1.));
#629=DIRECTION('',(0.,0.,1.));
#630=DIRECTION('',(0.,0.,-1.));
#631=DIRECTION('',(1.,1.44560289664734E-16,0.));
#632=DIRECTION('',(-1.44560289664734E-16,1.,0.));
#633=DIRECTION('',(0.,0.,-1.));
#634=DIRECTION('',(0.,0.,1.));
#635=DIRECTION('',(0.,1.,0.));
#636=DIRECTION('',(0.,0.,1.));
#637=DIRECTION('',(0.,-1.,0.));
#638=DIRECTION('',(0.,0.,-1.));
#639=DIRECTION('',(-1.,0.,0.));
#640=DIRECTION('',(0.,0.,1.));
#641=DIRECTION('',(0.,0.,-1.));
#642=DIRECTION('',(0.,0.,1.));
#643=DIRECTION('',(0.,-1.,0.));
#644=DIRECTION('',(0.,0.,-1.));
#645=DIRECTION('',(0.,0.,-1.));
#646=DIRECTION('',(1.,-1.44560289664734E-16,0.));
#647=DIRECTION('',(1.44560289664734E-16,1.,0.));
#648=DIRECTION('',(0.,0.,1.));
#649=DIRECTION('',(0.,1.,0.));
#650=DIRECTION('',(0.,0.,1.));
#651=CARTESIAN_POINT('',(0.,0.,0.));
#652=CARTESIAN_POINT('',(0.,0.,0.));
#653=CARTESIAN_POINT('',(0.,2.8,-3.80599855491302));
#654=CARTESIAN_POINT('',(-3.35,2.8,-3.80599855491302));
#655=CARTESIAN_POINT('',(-1.55,2.8,-3.80599855491302));
#656=CARTESIAN_POINT('',(-1.55,0.,0.));
#657=CARTESIAN_POINT('',(-1.55,2.8,3.80599855491302));
#658=CARTESIAN_POINT('',(0.,2.8,3.80599855491302));
#659=CARTESIAN_POINT('',(-3.35,2.8,3.80599855491302));
#660=CARTESIAN_POINT('',(-3.35,0.,0.));
#661=CARTESIAN_POINT('',(-8.,0.,0.));
#662=CARTESIAN_POINT('',(-8.,0.,4.725));
#663=CARTESIAN_POINT('',(0.,0.,0.));
#664=CARTESIAN_POINT('',(0.,0.,4.725));
#665=CARTESIAN_POINT('',(-1.55,0.,0.));
#666=CARTESIAN_POINT('',(-1.55,-2.8,-3.80599855491302));
#667=CARTESIAN_POINT('',(-1.55,-2.8,3.80599855491302));
#668=CARTESIAN_POINT('',(0.,-2.8,-3.80599855491302));
#669=CARTESIAN_POINT('',(-3.35,-2.8,-3.80599855491302));
#670=CARTESIAN_POINT('',(-3.35,0.,0.));
#671=CARTESIAN_POINT('',(-3.35,-2.8,3.80599855491302));
#672=CARTESIAN_POINT('',(0.,-2.8,3.80599855491302));
#673=CARTESIAN_POINT('',(0.,0.,0.));
#674=CARTESIAN_POINT('',(-8.,0.,0.));
#675=CARTESIAN_POINT('',(-8.,0.,-4.05));
#676=CARTESIAN_POINT('',(-1.,0.,0.));
#677=CARTESIAN_POINT('',(-1.,0.,4.05));
#678=CARTESIAN_POINT('',(-1.55,0.,0.));
#679=CARTESIAN_POINT('',(-1.55,2.8,-2.92617497767991));
#680=CARTESIAN_POINT('',(-1.55,2.8,2.92617497767991));
#681=CARTESIAN_POINT('',(0.,2.8,-2.92617497767991));
#682=CARTESIAN_POINT('',(-3.35,2.8,-2.92617497767991));
#683=CARTESIAN_POINT('',(-3.35,0.,0.));
#684=CARTESIAN_POINT('',(-3.35,2.8,2.92617497767991));
#685=CARTESIAN_POINT('',(0.,2.8,2.92617497767991));
#686=CARTESIAN_POINT('',(0.,-2.8,-2.92617497767991));
#687=CARTESIAN_POINT('',(-3.35,-2.8,-2.92617497767991));
#688=CARTESIAN_POINT('',(-1.55,-2.8,-2.92617497767991));
#689=CARTESIAN_POINT('',(-1.55,0.,0.));
#690=CARTESIAN_POINT('',(-1.55,-2.8,2.92617497767991));
#691=CARTESIAN_POINT('',(0.,-2.8,2.92617497767991));
#692=CARTESIAN_POINT('',(-3.35,-2.8,2.92617497767991));
#693=CARTESIAN_POINT('',(-3.35,0.,0.));
#694=CARTESIAN_POINT('',(-8.,0.,4.725));
#695=CARTESIAN_POINT('',(0.,0.,3.5));
#696=CARTESIAN_POINT('',(0.,0.,0.));
#697=CARTESIAN_POINT('',(0.,0.,3.5));
#698=CARTESIAN_POINT('',(-1.,0.,2.26226963048871));
#699=CARTESIAN_POINT('',(-0.999999999999999,0.,-3.45));
#700=CARTESIAN_POINT('',(-0.999999999999999,0.,3.45));
#701=CARTESIAN_POINT('',(-1.,0.,0.));
#702=CARTESIAN_POINT('',(-1.,0.,2.26226963048871));
#703=CARTESIAN_POINT('',(-1.,0.,0.));
#704=CARTESIAN_POINT('',(-10.4,0.,0.));
#705=CARTESIAN_POINT('',(-10.4,0.,1.98));
#706=CARTESIAN_POINT('',(-10.4,0.,1.98));
#707=CARTESIAN_POINT('',(-10.4,0.,0.));
#708=CARTESIAN_POINT('',(-10.4,0.,1.4));
#709=CARTESIAN_POINT('',(0.,0.,0.));
#710=CARTESIAN_POINT('',(5.5,0.,0.));
#711=CARTESIAN_POINT('',(5.5,0.,1.4));
#712=CARTESIAN_POINT('',(5.5,0.,1.4));
#713=CARTESIAN_POINT('',(5.5,0.,0.));
#714=CARTESIAN_POINT('',(5.5,0.,3.7));
#715=CARTESIAN_POINT('',(0.,0.,0.));
#716=CARTESIAN_POINT('',(1.8,0.,0.));
#717=CARTESIAN_POINT('',(1.8,0.,-4.));
#718=CARTESIAN_POINT('',(5.2,0.,0.));
#719=CARTESIAN_POINT('',(5.2,0.,4.));
#720=CARTESIAN_POINT('',(1.5,0.,3.5));
#721=CARTESIAN_POINT('',(1.5,0.,0.));
#722=CARTESIAN_POINT('',(1.5,0.,-3.7));
#723=CARTESIAN_POINT('',(1.5,0.,0.));
#724=CARTESIAN_POINT('',(1.5,0.,3.5));
#725=CARTESIAN_POINT('',(0.,0.,0.));
#726=CARTESIAN_POINT('',(1.5,0.,0.));
#727=CARTESIAN_POINT('',(5.2,0.,0.));
#728=CARTESIAN_POINT('',(-1.55,2.8,21.2811683184923));
#729=CARTESIAN_POINT('',(-1.55,2.8,-21.2811683184923));
#730=CARTESIAN_POINT('',(-1.55,2.8,21.2811683184923));
#731=CARTESIAN_POINT('',(-3.35,5.8,21.2811683184923));
#732=CARTESIAN_POINT('',(-3.35,2.8,21.2811683184923));
#733=CARTESIAN_POINT('',(-3.35,2.8,-21.2811683184923));
#734=CARTESIAN_POINT('',(-3.35,2.8,21.2811683184923));
#735=CARTESIAN_POINT('',(-3.35,2.8,-21.2811683184923));
#736=CARTESIAN_POINT('',(-1.55,-5.8,21.2811683184923));
#737=CARTESIAN_POINT('',(-1.55,-2.8,21.2811683184923));
#738=CARTESIAN_POINT('',(-1.55,-2.8,-21.2811683184923));
#739=CARTESIAN_POINT('',(-1.55,-2.8,21.2811683184923));
#740=CARTESIAN_POINT('',(-3.35,-2.8,21.2811683184923));
#741=CARTESIAN_POINT('',(-3.35,-2.8,21.2811683184923));
#742=CARTESIAN_POINT('',(-3.35,-2.8,-21.2811683184923));
#743=CARTESIAN_POINT('',(-1.55,-2.8,-21.2811683184923));
#744=MECHANICAL_DESIGN_GEOMETRIC_PRESENTATION_REPRESENTATION('',(#318,#319,
#320,#321,#322,#323,#324,#325,#326,#327,#328,#329,#330,#331,#332,#333,#334,
#335,#336,#337,#338,#339),#745);
#745=(
GEOMETRIC_REPRESENTATION_CONTEXT(3)
GLOBAL_UNCERTAINTY_ASSIGNED_CONTEXT((#746))
GLOBAL_UNIT_ASSIGNED_CONTEXT((#749,#748,#747))
REPRESENTATION_CONTEXT('501373_560952-M8x1','TOP_LEVEL_ASSEMBLY_PART')
);
#746=UNCERTAINTY_MEASURE_WITH_UNIT(LENGTH_MEASURE(0.005),#749,
'DISTANCE_ACCURACY_VALUE','Maximum Tolerance applied to model');
#747=(
NAMED_UNIT(*)
SI_UNIT($,.STERADIAN.)
SOLID_ANGLE_UNIT()
);
#748=(
NAMED_UNIT(*)
PLANE_ANGLE_UNIT()
SI_UNIT($,.RADIAN.)
);
#749=(
LENGTH_UNIT()
NAMED_UNIT(*)
SI_UNIT(.MILLI.,.METRE.)
);
#750=PRODUCT_DEFINITION_SHAPE('','',#751);
#751=PRODUCT_DEFINITION('','',#753,#752);
#752=PRODUCT_DEFINITION_CONTEXT('',#759,'design');
#753=PRODUCT_DEFINITION_FORMATION_WITH_SPECIFIED_SOURCE('','',#755,
 .NOT_KNOWN.);
#754=PRODUCT_RELATED_PRODUCT_CATEGORY('','',(#755));
#755=PRODUCT('501373_560952-M8x1','501373_560952-M8x1',
'501373_560952-M8x1',(#757));
#756=PRODUCT_CATEGORY('','');
#757=PRODUCT_CONTEXT('',#759,'mechanical');
#758=APPLICATION_PROTOCOL_DEFINITION('international standard',
'ap242_managed_model_based_3d_engineering',2011,#759);
#759=APPLICATION_CONTEXT('managed model based 3d engineering');
ENDSEC;
END-ISO-10303-21;
