ISO-10303-21;
HEADER;
/* Generated by software containing ST-Developer
 * from STEP Tools, Inc. (www.steptools.com) 
 */
/* OPTION: strings as raw bytes, not using required /X/ escapes */

FILE_DESCRIPTION(
/* description */ ('Unknown',
'CAx-IF Rec.Pracs.---Representation and Presentation of Product Manufa
cturing Information (PMI)---4.0---2014-10-13',
'CAx-IF Rec.Pracs.---3D Tessellated Geometry---0.4---2014-09-14','2;1'),

/* implementation_level */ '2;1');

FILE_NAME(
/* name */ '5901004_MicronS',
/* time_stamp */ '2022-12-02T13:44:45+01:00',
/* author */ ('Unknown'),
/* organization */ ('Unknown'),
/* preprocessor_version */ 'ST-DEVELOPER v16.7',
/* originating_system */ 'Solid Edge',
/* authorisation */ 'Unknown');

FILE_SCHEMA (('AP242_MANAGED_MODEL_BASED_3D_ENGINEERING_MIM_LF { 1 0 10303 442 1 1 4 }'));
ENDSEC;

DATA;
#10=SHAPE_REPRESENTATION_RELATIONSHIP('','',#456,#11);
#11=ADVANCED_BREP_SHAPE_REPRESENTATION('',(#454),#668);
#12=CONICAL_SURFACE('',#483,0.410000000000002,0.243507535096568);
#13=CONICAL_SURFACE('',#484,1.69088043215196,0.243507535096568);
#14=CONICAL_SURFACE('',#494,1.79566152768439,0.0300196631343024);
#15=CYLINDRICAL_SURFACE('',#474,3.9);
#16=CYLINDRICAL_SURFACE('',#481,0.410000000000002);
#17=CYLINDRICAL_SURFACE('',#487,0.305000000000002);
#18=CYLINDRICAL_SURFACE('',#488,3.35);
#19=CYLINDRICAL_SURFACE('',#489,3.35);
#20=CYLINDRICAL_SURFACE('',#490,3.35);
#21=CYLINDRICAL_SURFACE('',#491,3.35);
#22=LINE('',#591,#38);
#23=LINE('',#596,#39);
#24=LINE('',#600,#40);
#25=LINE('',#604,#41);
#26=LINE('',#608,#42);
#27=LINE('',#610,#43);
#28=LINE('',#612,#44);
#29=LINE('',#614,#45);
#30=LINE('',#616,#46);
#31=LINE('',#618,#47);
#32=LINE('',#620,#48);
#33=LINE('',#622,#49);
#34=LINE('',#624,#50);
#35=LINE('',#626,#51);
#36=LINE('',#628,#52);
#37=LINE('',#630,#53);
#38=VECTOR('',#501,1000.);
#39=VECTOR('',#504,1000.);
#40=VECTOR('',#507,1000.);
#41=VECTOR('',#510,1000.);
#42=VECTOR('',#515,1000.);
#43=VECTOR('',#516,1000.);
#44=VECTOR('',#517,1000.);
#45=VECTOR('',#520,1000.);
#46=VECTOR('',#521,1000.);
#47=VECTOR('',#522,1000.);
#48=VECTOR('',#525,1000.);
#49=VECTOR('',#526,1000.);
#50=VECTOR('',#527,1000.);
#51=VECTOR('',#530,1000.);
#52=VECTOR('',#531,1000.);
#53=VECTOR('',#532,1000.);
#54=ORIENTED_EDGE('',*,*,#122,.F.);
#55=ORIENTED_EDGE('',*,*,#123,.T.);
#56=ORIENTED_EDGE('',*,*,#124,.T.);
#57=ORIENTED_EDGE('',*,*,#125,.T.);
#58=ORIENTED_EDGE('',*,*,#126,.T.);
#59=ORIENTED_EDGE('',*,*,#127,.T.);
#60=ORIENTED_EDGE('',*,*,#128,.T.);
#61=ORIENTED_EDGE('',*,*,#129,.T.);
#62=ORIENTED_EDGE('',*,*,#130,.T.);
#63=ORIENTED_EDGE('',*,*,#131,.F.);
#64=ORIENTED_EDGE('',*,*,#123,.F.);
#65=ORIENTED_EDGE('',*,*,#132,.F.);
#66=ORIENTED_EDGE('',*,*,#133,.T.);
#67=ORIENTED_EDGE('',*,*,#134,.F.);
#68=ORIENTED_EDGE('',*,*,#125,.F.);
#69=ORIENTED_EDGE('',*,*,#135,.F.);
#70=ORIENTED_EDGE('',*,*,#136,.T.);
#71=ORIENTED_EDGE('',*,*,#137,.F.);
#72=ORIENTED_EDGE('',*,*,#127,.F.);
#73=ORIENTED_EDGE('',*,*,#138,.F.);
#74=ORIENTED_EDGE('',*,*,#139,.T.);
#75=ORIENTED_EDGE('',*,*,#140,.F.);
#76=ORIENTED_EDGE('',*,*,#129,.F.);
#77=ORIENTED_EDGE('',*,*,#141,.F.);
#78=ORIENTED_EDGE('',*,*,#142,.T.);
#79=ORIENTED_EDGE('',*,*,#143,.F.);
#80=ORIENTED_EDGE('',*,*,#142,.F.);
#81=ORIENTED_EDGE('',*,*,#144,.T.);
#82=ORIENTED_EDGE('',*,*,#139,.F.);
#83=ORIENTED_EDGE('',*,*,#145,.T.);
#84=ORIENTED_EDGE('',*,*,#136,.F.);
#85=ORIENTED_EDGE('',*,*,#146,.T.);
#86=ORIENTED_EDGE('',*,*,#133,.F.);
#87=ORIENTED_EDGE('',*,*,#147,.T.);
#88=ORIENTED_EDGE('',*,*,#143,.T.);
#89=ORIENTED_EDGE('',*,*,#148,.F.);
#90=ORIENTED_EDGE('',*,*,#148,.T.);
#91=ORIENTED_EDGE('',*,*,#149,.T.);
#92=ORIENTED_EDGE('',*,*,#150,.T.);
#93=ORIENTED_EDGE('',*,*,#151,.F.);
#94=ORIENTED_EDGE('',*,*,#152,.T.);
#95=ORIENTED_EDGE('',*,*,#150,.F.);
#96=ORIENTED_EDGE('',*,*,#122,.T.);
#97=ORIENTED_EDGE('',*,*,#152,.F.);
#98=ORIENTED_EDGE('',*,*,#153,.T.);
#99=ORIENTED_EDGE('',*,*,#154,.T.);
#100=ORIENTED_EDGE('',*,*,#154,.F.);
#101=ORIENTED_EDGE('',*,*,#151,.T.);
#102=ORIENTED_EDGE('',*,*,#131,.T.);
#103=ORIENTED_EDGE('',*,*,#146,.F.);
#104=ORIENTED_EDGE('',*,*,#135,.T.);
#105=ORIENTED_EDGE('',*,*,#124,.F.);
#106=ORIENTED_EDGE('',*,*,#134,.T.);
#107=ORIENTED_EDGE('',*,*,#145,.F.);
#108=ORIENTED_EDGE('',*,*,#138,.T.);
#109=ORIENTED_EDGE('',*,*,#126,.F.);
#110=ORIENTED_EDGE('',*,*,#137,.T.);
#111=ORIENTED_EDGE('',*,*,#144,.F.);
#112=ORIENTED_EDGE('',*,*,#141,.T.);
#113=ORIENTED_EDGE('',*,*,#128,.F.);
#114=ORIENTED_EDGE('',*,*,#132,.T.);
#115=ORIENTED_EDGE('',*,*,#130,.F.);
#116=ORIENTED_EDGE('',*,*,#140,.T.);
#117=ORIENTED_EDGE('',*,*,#147,.F.);
#118=ORIENTED_EDGE('',*,*,#155,.F.);
#119=ORIENTED_EDGE('',*,*,#153,.F.);
#120=ORIENTED_EDGE('',*,*,#149,.F.);
#121=ORIENTED_EDGE('',*,*,#155,.T.);
#122=EDGE_CURVE('',#156,#156,#182,.T.);
#123=EDGE_CURVE('',#157,#158,#22,.T.);
#124=EDGE_CURVE('',#158,#159,#183,.T.);
#125=EDGE_CURVE('',#159,#160,#23,.T.);
#126=EDGE_CURVE('',#160,#161,#184,.T.);
#127=EDGE_CURVE('',#161,#162,#24,.T.);
#128=EDGE_CURVE('',#162,#163,#185,.T.);
#129=EDGE_CURVE('',#163,#164,#25,.T.);
#130=EDGE_CURVE('',#164,#157,#186,.T.);
#131=EDGE_CURVE('',#158,#165,#26,.T.);
#132=EDGE_CURVE('',#166,#157,#27,.F.);
#133=EDGE_CURVE('',#166,#165,#28,.T.);
#134=EDGE_CURVE('',#160,#167,#29,.T.);
#135=EDGE_CURVE('',#168,#159,#30,.F.);
#136=EDGE_CURVE('',#168,#167,#31,.T.);
#137=EDGE_CURVE('',#162,#169,#32,.T.);
#138=EDGE_CURVE('',#170,#161,#33,.F.);
#139=EDGE_CURVE('',#170,#169,#34,.T.);
#140=EDGE_CURVE('',#164,#171,#35,.T.);
#141=EDGE_CURVE('',#172,#163,#36,.F.);
#142=EDGE_CURVE('',#172,#171,#37,.T.);
#143=EDGE_CURVE('',#173,#173,#187,.T.);
#144=EDGE_CURVE('',#172,#169,#188,.T.);
#145=EDGE_CURVE('',#170,#167,#189,.T.);
#146=EDGE_CURVE('',#168,#165,#190,.T.);
#147=EDGE_CURVE('',#166,#171,#191,.T.);
#148=EDGE_CURVE('',#174,#174,#192,.T.);
#149=EDGE_CURVE('',#175,#175,#193,.T.);
#150=EDGE_CURVE('',#176,#176,#194,.T.);
#151=EDGE_CURVE('',#177,#177,#195,.T.);
#152=EDGE_CURVE('',#178,#178,#196,.T.);
#153=EDGE_CURVE('',#179,#179,#197,.F.);
#154=EDGE_CURVE('',#180,#180,#198,.T.);
#155=EDGE_CURVE('',#181,#181,#199,.T.);
#156=VERTEX_POINT('',#590);
#157=VERTEX_POINT('',#592);
#158=VERTEX_POINT('',#593);
#159=VERTEX_POINT('',#595);
#160=VERTEX_POINT('',#597);
#161=VERTEX_POINT('',#599);
#162=VERTEX_POINT('',#601);
#163=VERTEX_POINT('',#603);
#164=VERTEX_POINT('',#605);
#165=VERTEX_POINT('',#609);
#166=VERTEX_POINT('',#611);
#167=VERTEX_POINT('',#615);
#168=VERTEX_POINT('',#617);
#169=VERTEX_POINT('',#621);
#170=VERTEX_POINT('',#623);
#171=VERTEX_POINT('',#627);
#172=VERTEX_POINT('',#629);
#173=VERTEX_POINT('',#633);
#174=VERTEX_POINT('',#640);
#175=VERTEX_POINT('',#643);
#176=VERTEX_POINT('',#646);
#177=VERTEX_POINT('',#648);
#178=VERTEX_POINT('',#651);
#179=VERTEX_POINT('',#655);
#180=VERTEX_POINT('',#657);
#181=VERTEX_POINT('',#665);
#182=CIRCLE('',#459,2.);
#183=CIRCLE('',#460,3.35);
#184=CIRCLE('',#461,3.35);
#185=CIRCLE('',#462,3.35);
#186=CIRCLE('',#463,3.35);
#187=CIRCLE('',#469,3.9);
#188=CIRCLE('',#470,3.35);
#189=CIRCLE('',#471,3.35);
#190=CIRCLE('',#472,3.35);
#191=CIRCLE('',#473,3.35);
#192=CIRCLE('',#475,3.9);
#193=CIRCLE('',#477,2.15);
#194=CIRCLE('',#479,0.410000000000002);
#195=CIRCLE('',#480,0.305000000000002);
#196=CIRCLE('',#482,0.410000000000002);
#197=CIRCLE('',#485,1.69088043215195);
#198=CIRCLE('',#486,0.305000000000002);
#199=CIRCLE('',#493,1.79566152768439);
#200=EDGE_LOOP('',(#54));
#201=EDGE_LOOP('',(#55,#56,#57,#58,#59,#60,#61,#62));
#202=EDGE_LOOP('',(#63,#64,#65,#66));
#203=EDGE_LOOP('',(#67,#68,#69,#70));
#204=EDGE_LOOP('',(#71,#72,#73,#74));
#205=EDGE_LOOP('',(#75,#76,#77,#78));
#206=EDGE_LOOP('',(#79));
#207=EDGE_LOOP('',(#80,#81,#82,#83,#84,#85,#86,#87));
#208=EDGE_LOOP('',(#88));
#209=EDGE_LOOP('',(#89));
#210=EDGE_LOOP('',(#90));
#211=EDGE_LOOP('',(#91));
#212=EDGE_LOOP('',(#92));
#213=EDGE_LOOP('',(#93));
#214=EDGE_LOOP('',(#94));
#215=EDGE_LOOP('',(#95));
#216=EDGE_LOOP('',(#96));
#217=EDGE_LOOP('',(#97));
#218=EDGE_LOOP('',(#98));
#219=EDGE_LOOP('',(#99));
#220=EDGE_LOOP('',(#100));
#221=EDGE_LOOP('',(#101));
#222=EDGE_LOOP('',(#102,#103,#104,#105));
#223=EDGE_LOOP('',(#106,#107,#108,#109));
#224=EDGE_LOOP('',(#110,#111,#112,#113));
#225=EDGE_LOOP('',(#114,#115,#116,#117));
#226=EDGE_LOOP('',(#118));
#227=EDGE_LOOP('',(#119));
#228=EDGE_LOOP('',(#120));
#229=EDGE_LOOP('',(#121));
#230=FACE_BOUND('',#200,.T.);
#231=FACE_BOUND('',#201,.T.);
#232=FACE_BOUND('',#202,.T.);
#233=FACE_BOUND('',#203,.T.);
#234=FACE_BOUND('',#204,.T.);
#235=FACE_BOUND('',#205,.T.);
#236=FACE_BOUND('',#206,.T.);
#237=FACE_BOUND('',#207,.T.);
#238=FACE_BOUND('',#208,.T.);
#239=FACE_BOUND('',#209,.T.);
#240=FACE_BOUND('',#210,.T.);
#241=FACE_BOUND('',#211,.T.);
#242=FACE_BOUND('',#212,.T.);
#243=FACE_BOUND('',#213,.T.);
#244=FACE_BOUND('',#214,.T.);
#245=FACE_BOUND('',#215,.T.);
#246=FACE_BOUND('',#216,.T.);
#247=FACE_BOUND('',#217,.T.);
#248=FACE_BOUND('',#218,.T.);
#249=FACE_BOUND('',#219,.T.);
#250=FACE_BOUND('',#220,.T.);
#251=FACE_BOUND('',#221,.T.);
#252=FACE_BOUND('',#222,.T.);
#253=FACE_BOUND('',#223,.T.);
#254=FACE_BOUND('',#224,.T.);
#255=FACE_BOUND('',#225,.T.);
#256=FACE_BOUND('',#226,.T.);
#257=FACE_BOUND('',#227,.T.);
#258=FACE_BOUND('',#228,.T.);
#259=FACE_BOUND('',#229,.T.);
#260=PLANE('',#458);
#261=PLANE('',#464);
#262=PLANE('',#465);
#263=PLANE('',#466);
#264=PLANE('',#467);
#265=PLANE('',#468);
#266=PLANE('',#476);
#267=PLANE('',#478);
#268=PLANE('',#492);
#269=STYLED_ITEM('',(#288),#434);
#270=STYLED_ITEM('',(#289),#435);
#271=STYLED_ITEM('',(#290),#436);
#272=STYLED_ITEM('',(#291),#437);
#273=STYLED_ITEM('',(#292),#438);
#274=STYLED_ITEM('',(#293),#439);
#275=STYLED_ITEM('',(#294),#440);
#276=STYLED_ITEM('',(#295),#441);
#277=STYLED_ITEM('',(#296),#442);
#278=STYLED_ITEM('',(#297),#443);
#279=STYLED_ITEM('',(#298),#444);
#280=STYLED_ITEM('',(#299),#445);
#281=STYLED_ITEM('',(#300),#446);
#282=STYLED_ITEM('',(#301),#447);
#283=STYLED_ITEM('',(#302),#448);
#284=STYLED_ITEM('',(#303),#449);
#285=STYLED_ITEM('',(#304),#450);
#286=STYLED_ITEM('',(#305),#451);
#287=STYLED_ITEM('',(#306),#452);
#288=PRESENTATION_STYLE_ASSIGNMENT((#307));
#289=PRESENTATION_STYLE_ASSIGNMENT((#308));
#290=PRESENTATION_STYLE_ASSIGNMENT((#309));
#291=PRESENTATION_STYLE_ASSIGNMENT((#310));
#292=PRESENTATION_STYLE_ASSIGNMENT((#311));
#293=PRESENTATION_STYLE_ASSIGNMENT((#312));
#294=PRESENTATION_STYLE_ASSIGNMENT((#313));
#295=PRESENTATION_STYLE_ASSIGNMENT((#314));
#296=PRESENTATION_STYLE_ASSIGNMENT((#315));
#297=PRESENTATION_STYLE_ASSIGNMENT((#316));
#298=PRESENTATION_STYLE_ASSIGNMENT((#317));
#299=PRESENTATION_STYLE_ASSIGNMENT((#318));
#300=PRESENTATION_STYLE_ASSIGNMENT((#319));
#301=PRESENTATION_STYLE_ASSIGNMENT((#320));
#302=PRESENTATION_STYLE_ASSIGNMENT((#321));
#303=PRESENTATION_STYLE_ASSIGNMENT((#322));
#304=PRESENTATION_STYLE_ASSIGNMENT((#323));
#305=PRESENTATION_STYLE_ASSIGNMENT((#324));
#306=PRESENTATION_STYLE_ASSIGNMENT((#325));
#307=SURFACE_STYLE_USAGE(.BOTH.,#326);
#308=SURFACE_STYLE_USAGE(.BOTH.,#327);
#309=SURFACE_STYLE_USAGE(.BOTH.,#328);
#310=SURFACE_STYLE_USAGE(.BOTH.,#329);
#311=SURFACE_STYLE_USAGE(.BOTH.,#330);
#312=SURFACE_STYLE_USAGE(.BOTH.,#331);
#313=SURFACE_STYLE_USAGE(.BOTH.,#332);
#314=SURFACE_STYLE_USAGE(.BOTH.,#333);
#315=SURFACE_STYLE_USAGE(.BOTH.,#334);
#316=SURFACE_STYLE_USAGE(.BOTH.,#335);
#317=SURFACE_STYLE_USAGE(.BOTH.,#336);
#318=SURFACE_STYLE_USAGE(.BOTH.,#337);
#319=SURFACE_STYLE_USAGE(.BOTH.,#338);
#320=SURFACE_STYLE_USAGE(.BOTH.,#339);
#321=SURFACE_STYLE_USAGE(.BOTH.,#340);
#322=SURFACE_STYLE_USAGE(.BOTH.,#341);
#323=SURFACE_STYLE_USAGE(.BOTH.,#342);
#324=SURFACE_STYLE_USAGE(.BOTH.,#343);
#325=SURFACE_STYLE_USAGE(.BOTH.,#344);
#326=SURFACE_SIDE_STYLE('',(#375,#345));
#327=SURFACE_SIDE_STYLE('',(#376,#346));
#328=SURFACE_SIDE_STYLE('',(#377,#347));
#329=SURFACE_SIDE_STYLE('',(#378,#348));
#330=SURFACE_SIDE_STYLE('',(#379,#349));
#331=SURFACE_SIDE_STYLE('',(#380,#350));
#332=SURFACE_SIDE_STYLE('',(#381,#351));
#333=SURFACE_SIDE_STYLE('',(#382,#352));
#334=SURFACE_SIDE_STYLE('',(#383));
#335=SURFACE_SIDE_STYLE('',(#384));
#336=SURFACE_SIDE_STYLE('',(#385));
#337=SURFACE_SIDE_STYLE('',(#386,#353));
#338=SURFACE_SIDE_STYLE('',(#387));
#339=SURFACE_SIDE_STYLE('',(#388,#354));
#340=SURFACE_SIDE_STYLE('',(#389,#355));
#341=SURFACE_SIDE_STYLE('',(#390,#356));
#342=SURFACE_SIDE_STYLE('',(#391,#357));
#343=SURFACE_SIDE_STYLE('',(#392,#358));
#344=SURFACE_SIDE_STYLE('',(#393,#359));
#345=SURFACE_STYLE_RENDERING_WITH_PROPERTIES(.CONSTANT_SHADING.,#432,(#360));
#346=SURFACE_STYLE_RENDERING_WITH_PROPERTIES(.CONSTANT_SHADING.,#432,(#361));
#347=SURFACE_STYLE_RENDERING_WITH_PROPERTIES(.CONSTANT_SHADING.,#432,(#362));
#348=SURFACE_STYLE_RENDERING_WITH_PROPERTIES(.CONSTANT_SHADING.,#432,(#363));
#349=SURFACE_STYLE_RENDERING_WITH_PROPERTIES(.CONSTANT_SHADING.,#432,(#364));
#350=SURFACE_STYLE_RENDERING_WITH_PROPERTIES(.CONSTANT_SHADING.,#432,(#365));
#351=SURFACE_STYLE_RENDERING_WITH_PROPERTIES(.CONSTANT_SHADING.,#432,(#366));
#352=SURFACE_STYLE_RENDERING_WITH_PROPERTIES(.CONSTANT_SHADING.,#432,(#367));
#353=SURFACE_STYLE_RENDERING_WITH_PROPERTIES(.CONSTANT_SHADING.,#432,(#368));
#354=SURFACE_STYLE_RENDERING_WITH_PROPERTIES(.CONSTANT_SHADING.,#432,(#369));
#355=SURFACE_STYLE_RENDERING_WITH_PROPERTIES(.CONSTANT_SHADING.,#432,(#370));
#356=SURFACE_STYLE_RENDERING_WITH_PROPERTIES(.CONSTANT_SHADING.,#432,(#371));
#357=SURFACE_STYLE_RENDERING_WITH_PROPERTIES(.CONSTANT_SHADING.,#432,(#372));
#358=SURFACE_STYLE_RENDERING_WITH_PROPERTIES(.CONSTANT_SHADING.,#432,(#373));
#359=SURFACE_STYLE_RENDERING_WITH_PROPERTIES(.CONSTANT_SHADING.,#432,(#374));
#360=SURFACE_STYLE_TRANSPARENT(0.699999988079071);
#361=SURFACE_STYLE_TRANSPARENT(0.699999988079071);
#362=SURFACE_STYLE_TRANSPARENT(0.699999988079071);
#363=SURFACE_STYLE_TRANSPARENT(0.699999988079071);
#364=SURFACE_STYLE_TRANSPARENT(0.699999988079071);
#365=SURFACE_STYLE_TRANSPARENT(0.699999988079071);
#366=SURFACE_STYLE_TRANSPARENT(0.699999988079071);
#367=SURFACE_STYLE_TRANSPARENT(0.699999988079071);
#368=SURFACE_STYLE_TRANSPARENT(0.699999988079071);
#369=SURFACE_STYLE_TRANSPARENT(0.699999988079071);
#370=SURFACE_STYLE_TRANSPARENT(0.699999988079071);
#371=SURFACE_STYLE_TRANSPARENT(0.699999988079071);
#372=SURFACE_STYLE_TRANSPARENT(0.699999988079071);
#373=SURFACE_STYLE_TRANSPARENT(0.699999988079071);
#374=SURFACE_STYLE_TRANSPARENT(0.699999988079071);
#375=SURFACE_STYLE_FILL_AREA(#394);
#376=SURFACE_STYLE_FILL_AREA(#395);
#377=SURFACE_STYLE_FILL_AREA(#396);
#378=SURFACE_STYLE_FILL_AREA(#397);
#379=SURFACE_STYLE_FILL_AREA(#398);
#380=SURFACE_STYLE_FILL_AREA(#399);
#381=SURFACE_STYLE_FILL_AREA(#400);
#382=SURFACE_STYLE_FILL_AREA(#401);
#383=SURFACE_STYLE_FILL_AREA(#402);
#384=SURFACE_STYLE_FILL_AREA(#403);
#385=SURFACE_STYLE_FILL_AREA(#404);
#386=SURFACE_STYLE_FILL_AREA(#405);
#387=SURFACE_STYLE_FILL_AREA(#406);
#388=SURFACE_STYLE_FILL_AREA(#407);
#389=SURFACE_STYLE_FILL_AREA(#408);
#390=SURFACE_STYLE_FILL_AREA(#409);
#391=SURFACE_STYLE_FILL_AREA(#410);
#392=SURFACE_STYLE_FILL_AREA(#411);
#393=SURFACE_STYLE_FILL_AREA(#412);
#394=FILL_AREA_STYLE('',(#413));
#395=FILL_AREA_STYLE('',(#414));
#396=FILL_AREA_STYLE('',(#415));
#397=FILL_AREA_STYLE('',(#416));
#398=FILL_AREA_STYLE('',(#417));
#399=FILL_AREA_STYLE('',(#418));
#400=FILL_AREA_STYLE('',(#419));
#401=FILL_AREA_STYLE('',(#420));
#402=FILL_AREA_STYLE('',(#421));
#403=FILL_AREA_STYLE('',(#422));
#404=FILL_AREA_STYLE('',(#423));
#405=FILL_AREA_STYLE('',(#424));
#406=FILL_AREA_STYLE('',(#425));
#407=FILL_AREA_STYLE('',(#426));
#408=FILL_AREA_STYLE('',(#427));
#409=FILL_AREA_STYLE('',(#428));
#410=FILL_AREA_STYLE('',(#429));
#411=FILL_AREA_STYLE('',(#430));
#412=FILL_AREA_STYLE('',(#431));
#413=FILL_AREA_STYLE_COLOUR('',#432);
#414=FILL_AREA_STYLE_COLOUR('',#432);
#415=FILL_AREA_STYLE_COLOUR('',#432);
#416=FILL_AREA_STYLE_COLOUR('',#432);
#417=FILL_AREA_STYLE_COLOUR('',#432);
#418=FILL_AREA_STYLE_COLOUR('',#432);
#419=FILL_AREA_STYLE_COLOUR('',#432);
#420=FILL_AREA_STYLE_COLOUR('',#432);
#421=FILL_AREA_STYLE_COLOUR('',#433);
#422=FILL_AREA_STYLE_COLOUR('',#433);
#423=FILL_AREA_STYLE_COLOUR('',#433);
#424=FILL_AREA_STYLE_COLOUR('',#432);
#425=FILL_AREA_STYLE_COLOUR('',#433);
#426=FILL_AREA_STYLE_COLOUR('',#432);
#427=FILL_AREA_STYLE_COLOUR('',#432);
#428=FILL_AREA_STYLE_COLOUR('',#432);
#429=FILL_AREA_STYLE_COLOUR('',#432);
#430=FILL_AREA_STYLE_COLOUR('',#432);
#431=FILL_AREA_STYLE_COLOUR('',#432);
#432=COLOUR_RGB('',0.,0.521999895572662,0.899999976158142);
#433=COLOUR_RGB('',0.74039214849472,0.778039216995239,0.800000011920929);
#434=ADVANCED_FACE('',(#230,#231),#260,.T.);
#435=ADVANCED_FACE('',(#232),#261,.F.);
#436=ADVANCED_FACE('',(#233),#262,.F.);
#437=ADVANCED_FACE('',(#234),#263,.F.);
#438=ADVANCED_FACE('',(#235),#264,.F.);
#439=ADVANCED_FACE('',(#236,#237),#265,.F.);
#440=ADVANCED_FACE('',(#238,#239),#15,.T.);
#441=ADVANCED_FACE('',(#240,#241),#266,.T.);
#442=ADVANCED_FACE('',(#242,#243),#267,.T.);
#443=ADVANCED_FACE('',(#244,#245),#16,.T.);
#444=ADVANCED_FACE('',(#246,#247),#12,.T.);
#445=ADVANCED_FACE('',(#248,#249),#13,.F.);
#446=ADVANCED_FACE('',(#250,#251),#17,.F.);
#447=ADVANCED_FACE('',(#252),#18,.T.);
#448=ADVANCED_FACE('',(#253),#19,.T.);
#449=ADVANCED_FACE('',(#254),#20,.T.);
#450=ADVANCED_FACE('',(#255),#21,.T.);
#451=ADVANCED_FACE('',(#256,#257),#268,.F.);
#452=ADVANCED_FACE('',(#258,#259),#14,.F.);
#453=CLOSED_SHELL('',(#434,#435,#436,#437,#438,#439,#440,#441,#442,#443,
#444,#445,#446,#447,#448,#449,#450,#451,#452));
#454=MANIFOLD_SOLID_BREP('',#453);
#455=SHAPE_DEFINITION_REPRESENTATION(#673,#456);
#456=SHAPE_REPRESENTATION('5901004_MicronS',(#457),#668);
#457=AXIS2_PLACEMENT_3D('',#587,#495,#496);
#458=AXIS2_PLACEMENT_3D('',#588,#497,#498);
#459=AXIS2_PLACEMENT_3D('',#589,#499,#500);
#460=AXIS2_PLACEMENT_3D('',#594,#502,#503);
#461=AXIS2_PLACEMENT_3D('',#598,#505,#506);
#462=AXIS2_PLACEMENT_3D('',#602,#508,#509);
#463=AXIS2_PLACEMENT_3D('',#606,#511,#512);
#464=AXIS2_PLACEMENT_3D('',#607,#513,#514);
#465=AXIS2_PLACEMENT_3D('',#613,#518,#519);
#466=AXIS2_PLACEMENT_3D('',#619,#523,#524);
#467=AXIS2_PLACEMENT_3D('',#625,#528,#529);
#468=AXIS2_PLACEMENT_3D('',#631,#533,#534);
#469=AXIS2_PLACEMENT_3D('',#632,#535,#536);
#470=AXIS2_PLACEMENT_3D('',#634,#537,#538);
#471=AXIS2_PLACEMENT_3D('',#635,#539,#540);
#472=AXIS2_PLACEMENT_3D('',#636,#541,#542);
#473=AXIS2_PLACEMENT_3D('',#637,#543,#544);
#474=AXIS2_PLACEMENT_3D('',#638,#545,#546);
#475=AXIS2_PLACEMENT_3D('',#639,#547,#548);
#476=AXIS2_PLACEMENT_3D('',#641,#549,#550);
#477=AXIS2_PLACEMENT_3D('',#642,#551,#552);
#478=AXIS2_PLACEMENT_3D('',#644,#553,#554);
#479=AXIS2_PLACEMENT_3D('',#645,#555,#556);
#480=AXIS2_PLACEMENT_3D('',#647,#557,#558);
#481=AXIS2_PLACEMENT_3D('',#649,#559,#560);
#482=AXIS2_PLACEMENT_3D('',#650,#561,#562);
#483=AXIS2_PLACEMENT_3D('',#652,#563,#564);
#484=AXIS2_PLACEMENT_3D('',#653,#565,#566);
#485=AXIS2_PLACEMENT_3D('',#654,#567,#568);
#486=AXIS2_PLACEMENT_3D('',#656,#569,#570);
#487=AXIS2_PLACEMENT_3D('',#658,#571,#572);
#488=AXIS2_PLACEMENT_3D('',#659,#573,#574);
#489=AXIS2_PLACEMENT_3D('',#660,#575,#576);
#490=AXIS2_PLACEMENT_3D('',#661,#577,#578);
#491=AXIS2_PLACEMENT_3D('',#662,#579,#580);
#492=AXIS2_PLACEMENT_3D('',#663,#581,#582);
#493=AXIS2_PLACEMENT_3D('',#664,#583,#584);
#494=AXIS2_PLACEMENT_3D('',#666,#585,#586);
#495=DIRECTION('',(0.,0.,1.));
#496=DIRECTION('',(1.,0.,0.));
#497=DIRECTION('',(0.,0.,1.));
#498=DIRECTION('',(1.,0.,0.));
#499=DIRECTION('',(0.,0.,1.));
#500=DIRECTION('',(1.,0.,0.));
#501=DIRECTION('',(-8.34001671142696E-17,1.,0.));
#502=DIRECTION('',(0.,0.,1.));
#503=DIRECTION('',(1.,0.,0.));
#504=DIRECTION('',(-1.,0.,0.));
#505=DIRECTION('',(0.,0.,1.));
#506=DIRECTION('',(1.,0.,0.));
#507=DIRECTION('',(8.34001671142696E-17,-1.,0.));
#508=DIRECTION('',(0.,0.,1.));
#509=DIRECTION('',(1.,0.,0.));
#510=DIRECTION('',(1.,3.33600668457078E-16,0.));
#511=DIRECTION('',(0.,0.,1.));
#512=DIRECTION('',(1.,0.,0.));
#513=DIRECTION('',(-1.,-8.34001671142696E-17,0.));
#514=DIRECTION('',(8.34001671142696E-17,-1.,0.));
#515=DIRECTION('',(0.,0.,-1.));
#516=DIRECTION('',(0.,0.,-1.));
#517=DIRECTION('',(-8.34001671142696E-17,1.,0.));
#518=DIRECTION('',(0.,-1.,0.));
#519=DIRECTION('',(0.,0.,-1.));
#520=DIRECTION('',(0.,0.,-1.));
#521=DIRECTION('',(0.,0.,-1.));
#522=DIRECTION('',(-1.,0.,0.));
#523=DIRECTION('',(1.,8.34001671142696E-17,0.));
#524=DIRECTION('',(-8.34001671142696E-17,1.,0.));
#525=DIRECTION('',(0.,0.,-1.));
#526=DIRECTION('',(0.,0.,-1.));
#527=DIRECTION('',(8.34001671142696E-17,-1.,0.));
#528=DIRECTION('',(-3.33600668457078E-16,1.,0.));
#529=DIRECTION('',(-1.,-3.33600668457078E-16,0.));
#530=DIRECTION('',(0.,0.,-1.));
#531=DIRECTION('',(0.,0.,-1.));
#532=DIRECTION('',(1.,3.33600668457078E-16,0.));
#533=DIRECTION('',(0.,0.,-1.));
#534=DIRECTION('',(-1.,0.,0.));
#535=DIRECTION('',(0.,0.,-1.));
#536=DIRECTION('',(1.,0.,0.));
#537=DIRECTION('',(0.,0.,-1.));
#538=DIRECTION('',(-1.,0.,0.));
#539=DIRECTION('',(0.,0.,-1.));
#540=DIRECTION('',(-1.,0.,0.));
#541=DIRECTION('',(0.,0.,-1.));
#542=DIRECTION('',(-1.,0.,0.));
#543=DIRECTION('',(0.,0.,-1.));
#544=DIRECTION('',(-1.,0.,0.));
#545=DIRECTION('',(0.,0.,-1.));
#546=DIRECTION('',(-1.,0.,0.));
#547=DIRECTION('',(0.,0.,-1.));
#548=DIRECTION('',(1.,0.,0.));
#549=DIRECTION('',(0.,0.,-1.));
#550=DIRECTION('',(-1.,0.,0.));
#551=DIRECTION('',(-8.7013384581578E-17,0.,1.));
#552=DIRECTION('',(1.,0.,8.7013384581578E-17));
#553=DIRECTION('',(-1.23327997120226E-16,0.,1.));
#554=DIRECTION('',(1.,0.,1.23327997120226E-16));
#555=DIRECTION('',(-1.23327997120226E-16,0.,1.));
#556=DIRECTION('',(1.,0.,1.23327997120226E-16));
#557=DIRECTION('',(-1.23327997120226E-16,0.,1.));
#558=DIRECTION('',(1.,0.,1.23327997120226E-16));
#559=DIRECTION('',(-1.23327997120226E-16,0.,1.));
#560=DIRECTION('',(1.,0.,1.23327997120226E-16));
#561=DIRECTION('',(-1.23327997120226E-16,0.,1.));
#562=DIRECTION('',(1.,0.,1.23327997120226E-16));
#563=DIRECTION('',(1.23327997120226E-16,0.,-1.));
#564=DIRECTION('',(-1.,0.,-1.23327997120226E-16));
#565=DIRECTION('',(1.23327997120226E-16,0.,-1.));
#566=DIRECTION('',(-1.,0.,-1.23327997120226E-16));
#567=DIRECTION('',(0.,0.,1.));
#568=DIRECTION('',(1.,0.,0.));
#569=DIRECTION('',(-1.23327997120226E-16,0.,1.));
#570=DIRECTION('',(1.,0.,1.23327997120226E-16));
#571=DIRECTION('',(-1.23327997120226E-16,0.,1.));
#572=DIRECTION('',(1.,0.,1.23327997120226E-16));
#573=DIRECTION('',(0.,0.,-1.));
#574=DIRECTION('',(-1.,0.,0.));
#575=DIRECTION('',(0.,0.,-1.));
#576=DIRECTION('',(-1.,0.,0.));
#577=DIRECTION('',(0.,0.,-1.));
#578=DIRECTION('',(-1.,0.,0.));
#579=DIRECTION('',(0.,0.,-1.));
#580=DIRECTION('',(-1.,0.,0.));
#581=DIRECTION('',(-8.7013384581578E-17,0.,1.));
#582=DIRECTION('',(1.,0.,8.7013384581578E-17));
#583=DIRECTION('',(-8.7013384581578E-17,0.,1.));
#584=DIRECTION('',(1.,0.,8.7013384581578E-17));
#585=DIRECTION('',(8.7013384581578E-17,0.,-1.));
#586=DIRECTION('',(-1.,0.,-8.7013384581578E-17));
#587=CARTESIAN_POINT('',(0.,0.,0.));
#588=CARTESIAN_POINT('',(0.,0.,11.8));
#589=CARTESIAN_POINT('',(-1.39399176744956E-15,0.,11.8));
#590=CARTESIAN_POINT('',(2.,0.,11.8));
#591=CARTESIAN_POINT('',(2.6,-2.6,11.8));
#592=CARTESIAN_POINT('',(2.6,-2.11246301742776,11.8));
#593=CARTESIAN_POINT('',(2.6,2.11246301742776,11.8));
#594=CARTESIAN_POINT('',(0.,0.,11.8));
#595=CARTESIAN_POINT('',(2.11246301742776,2.6,11.8));
#596=CARTESIAN_POINT('',(2.6,2.6,11.8));
#597=CARTESIAN_POINT('',(-2.11246301742776,2.6,11.8));
#598=CARTESIAN_POINT('',(0.,0.,11.8));
#599=CARTESIAN_POINT('',(-2.6,2.11246301742776,11.8));
#600=CARTESIAN_POINT('',(-2.6,2.6,11.8));
#601=CARTESIAN_POINT('',(-2.6,-2.11246301742776,11.8));
#602=CARTESIAN_POINT('',(0.,0.,11.8));
#603=CARTESIAN_POINT('',(-2.11246301742776,-2.6,11.8));
#604=CARTESIAN_POINT('',(-2.6,-2.6,11.8));
#605=CARTESIAN_POINT('',(2.11246301742776,-2.6,11.8));
#606=CARTESIAN_POINT('',(0.,0.,11.8));
#607=CARTESIAN_POINT('',(2.6,-2.6,11.8));
#608=CARTESIAN_POINT('',(2.6,2.11246301742776,30.0190450412019));
#609=CARTESIAN_POINT('',(2.6,2.11246301742776,4.2));
#610=CARTESIAN_POINT('',(2.6,-2.11246301742776,30.0190450412019));
#611=CARTESIAN_POINT('',(2.6,-2.11246301742776,4.2));
#612=CARTESIAN_POINT('',(2.6,-2.6,4.2));
#613=CARTESIAN_POINT('',(2.6,2.6,11.8));
#614=CARTESIAN_POINT('',(-2.11246301742776,2.6,30.0190450412019));
#615=CARTESIAN_POINT('',(-2.11246301742776,2.6,4.2));
#616=CARTESIAN_POINT('',(2.11246301742776,2.6,30.0190450412019));
#617=CARTESIAN_POINT('',(2.11246301742776,2.6,4.2));
#618=CARTESIAN_POINT('',(2.6,2.6,4.2));
#619=CARTESIAN_POINT('',(-2.6,2.6,11.8));
#620=CARTESIAN_POINT('',(-2.6,-2.11246301742776,30.0190450412019));
#621=CARTESIAN_POINT('',(-2.6,-2.11246301742776,4.2));
#622=CARTESIAN_POINT('',(-2.6,2.11246301742776,30.0190450412019));
#623=CARTESIAN_POINT('',(-2.6,2.11246301742776,4.2));
#624=CARTESIAN_POINT('',(-2.6,2.6,4.2));
#625=CARTESIAN_POINT('',(-2.6,-2.6,11.8));
#626=CARTESIAN_POINT('',(2.11246301742776,-2.6,30.0190450412019));
#627=CARTESIAN_POINT('',(2.11246301742776,-2.6,4.2));
#628=CARTESIAN_POINT('',(-2.11246301742776,-2.6,30.0190450412019));
#629=CARTESIAN_POINT('',(-2.11246301742776,-2.6,4.2));
#630=CARTESIAN_POINT('',(-2.6,-2.6,4.2));
#631=CARTESIAN_POINT('',(0.,0.,4.2));
#632=CARTESIAN_POINT('',(0.,0.,4.2));
#633=CARTESIAN_POINT('',(3.9,0.,4.2));
#634=CARTESIAN_POINT('',(0.,0.,4.2));
#635=CARTESIAN_POINT('',(0.,0.,4.2));
#636=CARTESIAN_POINT('',(0.,0.,4.2));
#637=CARTESIAN_POINT('',(0.,0.,4.2));
#638=CARTESIAN_POINT('',(0.,0.,4.2));
#639=CARTESIAN_POINT('',(0.,0.,0.));
#640=CARTESIAN_POINT('',(3.9,0.,0.));
#641=CARTESIAN_POINT('',(0.,0.,0.));
#642=CARTESIAN_POINT('',(-7.68797904126088E-16,0.,0.));
#643=CARTESIAN_POINT('',(2.15,0.,1.87078776850393E-16));
#644=CARTESIAN_POINT('',(0.305,0.,19.2));
#645=CARTESIAN_POINT('',(-2.36789754470834E-15,0.,19.2));
#646=CARTESIAN_POINT('',(0.41,0.,19.2));
#647=CARTESIAN_POINT('',(-2.36789754470834E-15,0.,19.2));
#648=CARTESIAN_POINT('',(0.305,0.,19.2));
#649=CARTESIAN_POINT('',(0.,0.,0.));
#650=CARTESIAN_POINT('',(-2.24456954758812E-15,0.,18.2));
#651=CARTESIAN_POINT('',(0.41,0.,18.2));
#652=CARTESIAN_POINT('',(-2.24456954758812E-15,0.,18.2));
#653=CARTESIAN_POINT('',(-1.45527036601867E-15,0.,11.8));
#654=CARTESIAN_POINT('',(-1.40346297440357E-15,0.,11.8));
#655=CARTESIAN_POINT('',(1.69088043215195,0.,11.8));
#656=CARTESIAN_POINT('',(-2.14324161812599E-15,0.,17.3783866451399));
#657=CARTESIAN_POINT('',(0.305,0.,17.3783866451399));
#658=CARTESIAN_POINT('',(0.,0.,0.));
#659=CARTESIAN_POINT('',(0.,0.,30.0190450412019));
#660=CARTESIAN_POINT('',(0.,0.,30.0190450412019));
#661=CARTESIAN_POINT('',(0.,0.,30.0190450412019));
#662=CARTESIAN_POINT('',(0.,0.,30.0190450412019));
#663=CARTESIAN_POINT('',(1.69088043215195,0.,11.8));
#664=CARTESIAN_POINT('',(-1.79555584218871E-15,0.,11.8));
#665=CARTESIAN_POINT('',(1.79566152768439,0.,11.8));
#666=CARTESIAN_POINT('',(-1.79555584218871E-15,0.,11.8));
#667=MECHANICAL_DESIGN_GEOMETRIC_PRESENTATION_REPRESENTATION('',(#269,#270,
#271,#272,#273,#274,#275,#276,#277,#278,#279,#280,#281,#282,#283,#284,#285,
#286,#287),#668);
#668=(
GEOMETRIC_REPRESENTATION_CONTEXT(3)
GLOBAL_UNCERTAINTY_ASSIGNED_CONTEXT((#669))
GLOBAL_UNIT_ASSIGNED_CONTEXT((#672,#671,#670))
REPRESENTATION_CONTEXT('5901004_MicronS','TOP_LEVEL_ASSEMBLY_PART')
);
#669=UNCERTAINTY_MEASURE_WITH_UNIT(LENGTH_MEASURE(0.005),#672,
'DISTANCE_ACCURACY_VALUE','Maximum Tolerance applied to model');
#670=(
NAMED_UNIT(*)
SI_UNIT($,.STERADIAN.)
SOLID_ANGLE_UNIT()
);
#671=(
NAMED_UNIT(*)
PLANE_ANGLE_UNIT()
SI_UNIT($,.RADIAN.)
);
#672=(
LENGTH_UNIT()
NAMED_UNIT(*)
SI_UNIT(.MILLI.,.METRE.)
);
#673=PRODUCT_DEFINITION_SHAPE('','',#674);
#674=PRODUCT_DEFINITION('','',#676,#675);
#675=PRODUCT_DEFINITION_CONTEXT('',#682,'design');
#676=PRODUCT_DEFINITION_FORMATION_WITH_SPECIFIED_SOURCE('','',#678,
 .NOT_KNOWN.);
#677=PRODUCT_RELATED_PRODUCT_CATEGORY('','',(#678));
#678=PRODUCT('5901004_MicronS','5901004_MicronS','5901004_MicronS',(#680));
#679=PRODUCT_CATEGORY('','');
#680=PRODUCT_CONTEXT('',#682,'mechanical');
#681=APPLICATION_PROTOCOL_DEFINITION('international standard',
'ap242_managed_model_based_3d_engineering',2011,#682);
#682=APPLICATION_CONTEXT('managed model based 3d engineering');
ENDSEC;
END-ISO-10303-21;
