ISO-10303-21;
HEADER;
/* Generated by software containing ST-Developer
 * from STEP Tools, Inc. (www.steptools.com) 
 */
/* OPTION: strings as raw bytes, not using required /X/ escapes */

FILE_DESCRIPTION(
/* description */ ('Unknown',
'CAx-IF Rec.Pracs.---Representation and Presentation of Product Manufa
cturing Information (PMI)---4.0---2014-10-13',
'CAx-IF Rec.Pracs.---3D Tessellated Geometry---0.4---2014-09-14','2;1'),

/* implementation_level */ '2;1');

FILE_NAME(
/* name */ 'S01521_R0_Reduzierring_310erHÃ¼lse',
/* time_stamp */ '2020-01-15T09:21:43+01:00',
/* author */ ('Vitus Schwinghammer'),
/* organization */ ('Vieweg GmbH'),
/* preprocessor_version */ 'ST-DEVELOPER v16.7',
/* originating_system */ 'Solid Edge',
/* authorisation */ 'Unknown');

FILE_SCHEMA (('AP242_MANAGED_MODEL_BASED_3D_ENGINEERING_MIM_LF { 1 0 10303 442 1 1 4 }'));
ENDSEC;

DATA;
#10=SHAPE_REPRESENTATION_RELATIONSHIP('','',#201,#11);
#11=ADVANCED_BREP_SHAPE_REPRESENTATION('',(#199),#299);
#12=COLOUR_RGB('',0.506983280181885,0.531564235687256,0.550000011920929);
#13=CYLINDRICAL_SURFACE('',#206,27.);
#14=CYLINDRICAL_SURFACE('',#210,30.5);
#15=CYLINDRICAL_SURFACE('',#214,27.7);
#16=LINE('',#264,#28);
#17=LINE('',#268,#29);
#18=LINE('',#273,#30);
#19=LINE('',#274,#31);
#20=LINE('',#279,#32);
#21=LINE('',#280,#33);
#22=LINE('',#285,#34);
#23=LINE('',#286,#35);
#24=LINE('',#291,#36);
#25=LINE('',#292,#37);
#26=LINE('',#294,#38);
#27=LINE('',#295,#39);
#28=VECTOR('',#223,1000.);
#29=VECTOR('',#226,1000.);
#30=VECTOR('',#231,1000.);
#31=VECTOR('',#232,1000.);
#32=VECTOR('',#237,1000.);
#33=VECTOR('',#238,1000.);
#34=VECTOR('',#243,1000.);
#35=VECTOR('',#244,1000.);
#36=VECTOR('',#249,1000.);
#37=VECTOR('',#250,1000.);
#38=VECTOR('',#253,1000.);
#39=VECTOR('',#254,1000.);
#40=ORIENTED_EDGE('',*,*,#76,.T.);
#41=ORIENTED_EDGE('',*,*,#77,.T.);
#42=ORIENTED_EDGE('',*,*,#78,.F.);
#43=ORIENTED_EDGE('',*,*,#79,.T.);
#44=ORIENTED_EDGE('',*,*,#80,.T.);
#45=ORIENTED_EDGE('',*,*,#81,.T.);
#46=ORIENTED_EDGE('',*,*,#76,.F.);
#47=ORIENTED_EDGE('',*,*,#82,.T.);
#48=ORIENTED_EDGE('',*,*,#83,.T.);
#49=ORIENTED_EDGE('',*,*,#84,.T.);
#50=ORIENTED_EDGE('',*,*,#80,.F.);
#51=ORIENTED_EDGE('',*,*,#85,.T.);
#52=ORIENTED_EDGE('',*,*,#86,.T.);
#53=ORIENTED_EDGE('',*,*,#87,.T.);
#54=ORIENTED_EDGE('',*,*,#83,.F.);
#55=ORIENTED_EDGE('',*,*,#88,.T.);
#56=ORIENTED_EDGE('',*,*,#89,.T.);
#57=ORIENTED_EDGE('',*,*,#90,.T.);
#58=ORIENTED_EDGE('',*,*,#86,.F.);
#59=ORIENTED_EDGE('',*,*,#91,.T.);
#60=ORIENTED_EDGE('',*,*,#78,.T.);
#61=ORIENTED_EDGE('',*,*,#92,.T.);
#62=ORIENTED_EDGE('',*,*,#89,.F.);
#63=ORIENTED_EDGE('',*,*,#93,.T.);
#64=ORIENTED_EDGE('',*,*,#84,.F.);
#65=ORIENTED_EDGE('',*,*,#87,.F.);
#66=ORIENTED_EDGE('',*,*,#90,.F.);
#67=ORIENTED_EDGE('',*,*,#92,.F.);
#68=ORIENTED_EDGE('',*,*,#77,.F.);
#69=ORIENTED_EDGE('',*,*,#81,.F.);
#70=ORIENTED_EDGE('',*,*,#79,.F.);
#71=ORIENTED_EDGE('',*,*,#93,.F.);
#72=ORIENTED_EDGE('',*,*,#91,.F.);
#73=ORIENTED_EDGE('',*,*,#88,.F.);
#74=ORIENTED_EDGE('',*,*,#85,.F.);
#75=ORIENTED_EDGE('',*,*,#82,.F.);
#76=EDGE_CURVE('',#94,#95,#106,.T.);
#77=EDGE_CURVE('',#95,#96,#16,.T.);
#78=EDGE_CURVE('',#97,#96,#107,.T.);
#79=EDGE_CURVE('',#97,#94,#17,.T.);
#80=EDGE_CURVE('',#98,#99,#108,.T.);
#81=EDGE_CURVE('',#99,#95,#18,.F.);
#82=EDGE_CURVE('',#94,#98,#19,.T.);
#83=EDGE_CURVE('',#100,#101,#109,.T.);
#84=EDGE_CURVE('',#101,#99,#20,.T.);
#85=EDGE_CURVE('',#98,#100,#21,.T.);
#86=EDGE_CURVE('',#102,#103,#110,.T.);
#87=EDGE_CURVE('',#103,#101,#22,.T.);
#88=EDGE_CURVE('',#100,#102,#23,.F.);
#89=EDGE_CURVE('',#104,#105,#111,.T.);
#90=EDGE_CURVE('',#105,#103,#24,.T.);
#91=EDGE_CURVE('',#102,#104,#25,.T.);
#92=EDGE_CURVE('',#96,#105,#26,.T.);
#93=EDGE_CURVE('',#104,#97,#27,.F.);
#94=VERTEX_POINT('',#262);
#95=VERTEX_POINT('',#263);
#96=VERTEX_POINT('',#265);
#97=VERTEX_POINT('',#267);
#98=VERTEX_POINT('',#271);
#99=VERTEX_POINT('',#272);
#100=VERTEX_POINT('',#277);
#101=VERTEX_POINT('',#278);
#102=VERTEX_POINT('',#283);
#103=VERTEX_POINT('',#284);
#104=VERTEX_POINT('',#289);
#105=VERTEX_POINT('',#290);
#106=CIRCLE('',#204,27.);
#107=CIRCLE('',#205,27.7);
#108=CIRCLE('',#207,27.);
#109=CIRCLE('',#209,30.5);
#110=CIRCLE('',#211,30.5);
#111=CIRCLE('',#213,27.7);
#112=EDGE_LOOP('',(#40,#41,#42,#43));
#113=EDGE_LOOP('',(#44,#45,#46,#47));
#114=EDGE_LOOP('',(#48,#49,#50,#51));
#115=EDGE_LOOP('',(#52,#53,#54,#55));
#116=EDGE_LOOP('',(#56,#57,#58,#59));
#117=EDGE_LOOP('',(#60,#61,#62,#63));
#118=EDGE_LOOP('',(#64,#65,#66,#67,#68,#69));
#119=EDGE_LOOP('',(#70,#71,#72,#73,#74,#75));
#120=FACE_BOUND('',#112,.T.);
#121=FACE_BOUND('',#113,.T.);
#122=FACE_BOUND('',#114,.T.);
#123=FACE_BOUND('',#115,.T.);
#124=FACE_BOUND('',#116,.T.);
#125=FACE_BOUND('',#117,.T.);
#126=FACE_BOUND('',#118,.T.);
#127=FACE_BOUND('',#119,.T.);
#128=PLANE('',#203);
#129=PLANE('',#208);
#130=PLANE('',#212);
#131=PLANE('',#215);
#132=PLANE('',#216);
#133=STYLED_ITEM('',(#141),#190);
#134=STYLED_ITEM('',(#142),#191);
#135=STYLED_ITEM('',(#143),#192);
#136=STYLED_ITEM('',(#144),#193);
#137=STYLED_ITEM('',(#145),#194);
#138=STYLED_ITEM('',(#146),#195);
#139=STYLED_ITEM('',(#147),#196);
#140=STYLED_ITEM('',(#148),#197);
#141=PRESENTATION_STYLE_ASSIGNMENT((#149));
#142=PRESENTATION_STYLE_ASSIGNMENT((#150));
#143=PRESENTATION_STYLE_ASSIGNMENT((#151));
#144=PRESENTATION_STYLE_ASSIGNMENT((#152));
#145=PRESENTATION_STYLE_ASSIGNMENT((#153));
#146=PRESENTATION_STYLE_ASSIGNMENT((#154));
#147=PRESENTATION_STYLE_ASSIGNMENT((#155));
#148=PRESENTATION_STYLE_ASSIGNMENT((#156));
#149=SURFACE_STYLE_USAGE(.BOTH.,#157);
#150=SURFACE_STYLE_USAGE(.BOTH.,#158);
#151=SURFACE_STYLE_USAGE(.BOTH.,#159);
#152=SURFACE_STYLE_USAGE(.BOTH.,#160);
#153=SURFACE_STYLE_USAGE(.BOTH.,#161);
#154=SURFACE_STYLE_USAGE(.BOTH.,#162);
#155=SURFACE_STYLE_USAGE(.BOTH.,#163);
#156=SURFACE_STYLE_USAGE(.BOTH.,#164);
#157=SURFACE_SIDE_STYLE('',(#165));
#158=SURFACE_SIDE_STYLE('',(#166));
#159=SURFACE_SIDE_STYLE('',(#167));
#160=SURFACE_SIDE_STYLE('',(#168));
#161=SURFACE_SIDE_STYLE('',(#169));
#162=SURFACE_SIDE_STYLE('',(#170));
#163=SURFACE_SIDE_STYLE('',(#171));
#164=SURFACE_SIDE_STYLE('',(#172));
#165=SURFACE_STYLE_FILL_AREA(#173);
#166=SURFACE_STYLE_FILL_AREA(#174);
#167=SURFACE_STYLE_FILL_AREA(#175);
#168=SURFACE_STYLE_FILL_AREA(#176);
#169=SURFACE_STYLE_FILL_AREA(#177);
#170=SURFACE_STYLE_FILL_AREA(#178);
#171=SURFACE_STYLE_FILL_AREA(#179);
#172=SURFACE_STYLE_FILL_AREA(#180);
#173=FILL_AREA_STYLE('',(#181));
#174=FILL_AREA_STYLE('',(#182));
#175=FILL_AREA_STYLE('',(#183));
#176=FILL_AREA_STYLE('',(#184));
#177=FILL_AREA_STYLE('',(#185));
#178=FILL_AREA_STYLE('',(#186));
#179=FILL_AREA_STYLE('',(#187));
#180=FILL_AREA_STYLE('',(#188));
#181=FILL_AREA_STYLE_COLOUR('',#189);
#182=FILL_AREA_STYLE_COLOUR('',#189);
#183=FILL_AREA_STYLE_COLOUR('',#189);
#184=FILL_AREA_STYLE_COLOUR('',#189);
#185=FILL_AREA_STYLE_COLOUR('',#189);
#186=FILL_AREA_STYLE_COLOUR('',#189);
#187=FILL_AREA_STYLE_COLOUR('',#12);
#188=FILL_AREA_STYLE_COLOUR('',#12);
#189=DRAUGHTING_PRE_DEFINED_COLOUR('black');
#190=ADVANCED_FACE('',(#120),#128,.T.);
#191=ADVANCED_FACE('',(#121),#13,.F.);
#192=ADVANCED_FACE('',(#122),#129,.T.);
#193=ADVANCED_FACE('',(#123),#14,.T.);
#194=ADVANCED_FACE('',(#124),#130,.T.);
#195=ADVANCED_FACE('',(#125),#15,.T.);
#196=ADVANCED_FACE('',(#126),#131,.T.);
#197=ADVANCED_FACE('',(#127),#132,.T.);
#198=CLOSED_SHELL('',(#190,#191,#192,#193,#194,#195,#196,#197));
#199=MANIFOLD_SOLID_BREP('',#198);
#200=SHAPE_DEFINITION_REPRESENTATION(#304,#201);
#201=SHAPE_REPRESENTATION('S01521_R0_Reduzierring_310erHülse',(#202),#299);
#202=AXIS2_PLACEMENT_3D('',#259,#217,#218);
#203=AXIS2_PLACEMENT_3D('',#260,#219,#220);
#204=AXIS2_PLACEMENT_3D('',#261,#221,#222);
#205=AXIS2_PLACEMENT_3D('',#266,#224,#225);
#206=AXIS2_PLACEMENT_3D('',#269,#227,#228);
#207=AXIS2_PLACEMENT_3D('',#270,#229,#230);
#208=AXIS2_PLACEMENT_3D('',#275,#233,#234);
#209=AXIS2_PLACEMENT_3D('',#276,#235,#236);
#210=AXIS2_PLACEMENT_3D('',#281,#239,#240);
#211=AXIS2_PLACEMENT_3D('',#282,#241,#242);
#212=AXIS2_PLACEMENT_3D('',#287,#245,#246);
#213=AXIS2_PLACEMENT_3D('',#288,#247,#248);
#214=AXIS2_PLACEMENT_3D('',#293,#251,#252);
#215=AXIS2_PLACEMENT_3D('',#296,#255,#256);
#216=AXIS2_PLACEMENT_3D('',#297,#257,#258);
#217=DIRECTION('',(0.,0.,1.));
#218=DIRECTION('',(1.,0.,0.));
#219=DIRECTION('',(0.,0.,-1.));
#220=DIRECTION('',(-1.,0.,0.));
#221=DIRECTION('',(0.,0.,1.));
#222=DIRECTION('',(1.,0.,0.));
#223=DIRECTION('',(1.38777878078145E-16,-1.,0.));
#224=DIRECTION('',(0.,0.,1.));
#225=DIRECTION('',(1.,0.,0.));
#226=DIRECTION('',(-1.04083408558608E-16,1.,0.));
#227=DIRECTION('',(0.,0.,1.));
#228=DIRECTION('',(1.,0.,0.));
#229=DIRECTION('',(0.,0.,1.));
#230=DIRECTION('',(1.,0.,0.));
#231=DIRECTION('',(0.,0.,1.));
#232=DIRECTION('',(0.,0.,1.));
#233=DIRECTION('',(0.,0.,1.));
#234=DIRECTION('',(1.,0.,0.));
#235=DIRECTION('',(0.,0.,1.));
#236=DIRECTION('',(1.,0.,0.));
#237=DIRECTION('',(-1.38777878078145E-16,1.,0.));
#238=DIRECTION('',(1.04083408558608E-16,-1.,0.));
#239=DIRECTION('',(0.,0.,1.));
#240=DIRECTION('',(1.,0.,0.));
#241=DIRECTION('',(0.,0.,1.));
#242=DIRECTION('',(1.,0.,0.));
#243=DIRECTION('',(0.,0.,1.));
#244=DIRECTION('',(0.,0.,1.));
#245=DIRECTION('',(0.,0.,-1.));
#246=DIRECTION('',(-1.,0.,0.));
#247=DIRECTION('',(0.,0.,1.));
#248=DIRECTION('',(1.,0.,0.));
#249=DIRECTION('',(1.38777878078145E-16,-1.,0.));
#250=DIRECTION('',(-1.04083408558608E-16,1.,0.));
#251=DIRECTION('',(0.,0.,1.));
#252=DIRECTION('',(1.,0.,0.));
#253=DIRECTION('',(0.,0.,1.));
#254=DIRECTION('',(0.,0.,1.));
#255=DIRECTION('',(1.,1.38777878078145E-16,0.));
#256=DIRECTION('',(-1.38777878078145E-16,1.,0.));
#257=DIRECTION('',(-1.,-1.04083408558608E-16,0.));
#258=DIRECTION('',(1.04083408558608E-16,-1.,0.));
#259=CARTESIAN_POINT('',(0.,0.,0.));
#260=CARTESIAN_POINT('',(27.7,0.,-3.49465243950934E-15));
#261=CARTESIAN_POINT('',(0.,0.,-3.51985792706506E-15));
#262=CARTESIAN_POINT('',(7.,-26.0768096208106,-3.51985792706506E-15));
#263=CARTESIAN_POINT('',(-7.,-26.0768096208106,0.));
#264=CARTESIAN_POINT('',(-7.,-1.83112042576769E-15,0.));
#265=CARTESIAN_POINT('',(-7.,-26.8009328195867,-3.46944695195361E-15));
#266=CARTESIAN_POINT('',(0.,0.,-3.46944695195361E-15));
#267=CARTESIAN_POINT('',(7.,-26.8009328195867,0.));
#268=CARTESIAN_POINT('',(7.,-50.,0.));
#269=CARTESIAN_POINT('',(0.,0.,0.));
#270=CARTESIAN_POINT('',(0.,0.,22.));
#271=CARTESIAN_POINT('',(7.,-26.0768096208106,22.));
#272=CARTESIAN_POINT('',(-7.,-26.0768096208106,22.));
#273=CARTESIAN_POINT('',(-6.99999999999999,-26.0768096208106,0.));
#274=CARTESIAN_POINT('',(7.,-26.0768096208106,0.));
#275=CARTESIAN_POINT('',(27.,0.,22.));
#276=CARTESIAN_POINT('',(0.,0.,22.));
#277=CARTESIAN_POINT('',(7.,-29.6858552175948,22.));
#278=CARTESIAN_POINT('',(-6.99999999999999,-29.6858552175948,22.));
#279=CARTESIAN_POINT('',(-7.,-4.71844785465692E-15,22.));
#280=CARTESIAN_POINT('',(7.,-2.08166817117217E-15,22.));
#281=CARTESIAN_POINT('',(0.,0.,0.));
#282=CARTESIAN_POINT('',(0.,0.,20.));
#283=CARTESIAN_POINT('',(7.00000000000001,-29.6858552175948,20.));
#284=CARTESIAN_POINT('',(-6.99999999999999,-29.6858552175948,20.));
#285=CARTESIAN_POINT('',(-6.99999999999999,-29.6858552175948,0.));
#286=CARTESIAN_POINT('',(7.,-29.6858552175948,0.));
#287=CARTESIAN_POINT('',(30.5,0.,20.));
#288=CARTESIAN_POINT('',(0.,0.,20.));
#289=CARTESIAN_POINT('',(7.,-26.8009328195867,20.));
#290=CARTESIAN_POINT('',(-6.99999999999999,-26.8009328195867,20.));
#291=CARTESIAN_POINT('',(-7.,-5.20417042793042E-15,20.));
#292=CARTESIAN_POINT('',(7.,-2.4459601011273E-15,20.));
#293=CARTESIAN_POINT('',(0.,0.,0.));
#294=CARTESIAN_POINT('',(-6.99999999999999,-26.8009328195867,0.));
#295=CARTESIAN_POINT('',(7.,-26.8009328195867,0.));
#296=CARTESIAN_POINT('',(-7.,-1.83112042576769E-15,103.36948292412));
#297=CARTESIAN_POINT('',(7.,-50.,103.36948292412));
#298=MECHANICAL_DESIGN_GEOMETRIC_PRESENTATION_REPRESENTATION('',(#133,#134,
#135,#136,#137,#138,#139,#140),#299);
#299=(
GEOMETRIC_REPRESENTATION_CONTEXT(3)
GLOBAL_UNCERTAINTY_ASSIGNED_CONTEXT((#300))
GLOBAL_UNIT_ASSIGNED_CONTEXT((#303,#302,#301))
REPRESENTATION_CONTEXT('S01521_R0_Reduzierring_310erHülse',
'TOP_LEVEL_ASSEMBLY_PART')
);
#300=UNCERTAINTY_MEASURE_WITH_UNIT(LENGTH_MEASURE(0.005),#303,
'DISTANCE_ACCURACY_VALUE','Maximum Tolerance applied to model');
#301=(
NAMED_UNIT(*)
SI_UNIT($,.STERADIAN.)
SOLID_ANGLE_UNIT()
);
#302=(
NAMED_UNIT(*)
PLANE_ANGLE_UNIT()
SI_UNIT($,.RADIAN.)
);
#303=(
LENGTH_UNIT()
NAMED_UNIT(*)
SI_UNIT(.MILLI.,.METRE.)
);
#304=PRODUCT_DEFINITION_SHAPE('','',#305);
#305=PRODUCT_DEFINITION('','',#307,#306);
#306=PRODUCT_DEFINITION_CONTEXT('',#313,'design');
#307=PRODUCT_DEFINITION_FORMATION_WITH_SPECIFIED_SOURCE('','',#309,
 .NOT_KNOWN.);
#308=PRODUCT_RELATED_PRODUCT_CATEGORY('','',(#309));
#309=PRODUCT('S01521_R0_Reduzierring_310erHülse',
'S01521_R0_Reduzierring_310erHülse','S01521_R0_Reduzierring_310erHülse',
(#311));
#310=PRODUCT_CATEGORY('','');
#311=PRODUCT_CONTEXT('',#313,'mechanical');
#312=APPLICATION_PROTOCOL_DEFINITION('international standard',
'ap242_managed_model_based_3d_engineering',2011,#313);
#313=APPLICATION_CONTEXT('managed model based 3d engineering');
ENDSEC;
END-ISO-10303-21;
