ISO-10303-21;
HEADER;
/* Generated by software containing ST-Developer
 * from STEP Tools, Inc. (www.steptools.com) 
 */
/* OPTION: strings as raw bytes, not using required /X/ escapes */

FILE_DESCRIPTION(
/* description */ ('Unknown',
'CAx-IF Rec.Pracs.---Representation and Presentation of Product Manufa
cturing Information (PMI)---4.0---2014-10-13',
'CAx-IF Rec.Pracs.---3D Tessellated Geometry---0.4---2014-09-14','2;1'),

/* implementation_level */ '2;1');

FILE_NAME(
/* name */ '13-18-S-PY_Mischrohr',
/* time_stamp */ '2022-09-15T13:55:21+02:00',
/* author */ ('Unknown'),
/* organization */ ('Unknown'),
/* preprocessor_version */ 'ST-DEVELOPER v16.7',
/* originating_system */ 'Solid Edge',
/* authorisation */ 'Unknown');

FILE_SCHEMA (('AP242_MANAGED_MODEL_BASED_3D_ENGINEERING_MIM_LF { 1 0 10303 442 1 1 4 }'));
ENDSEC;

DATA;
#10=SHAPE_REPRESENTATION_RELATIONSHIP('','',#245,#11);
#11=ADVANCED_BREP_SHAPE_REPRESENTATION('',(#243),#435);
#12=TOROIDAL_SURFACE('',#286,6.4,2.);
#13=PLANE('',#257);
#14=PLANE('',#261);
#15=PLANE('',#265);
#16=PLANE('',#269);
#17=PLANE('',#273);
#18=PLANE('',#278);
#19=PLANE('',#279);
#20=PLANE('',#283);
#21=CYLINDRICAL_SURFACE('',#250,8.4);
#22=CYLINDRICAL_SURFACE('',#255,6.49999999999997);
#23=CYLINDRICAL_SURFACE('',#259,5.44999999999997);
#24=CYLINDRICAL_SURFACE('',#263,4.49999999999997);
#25=CYLINDRICAL_SURFACE('',#267,3.49999999999997);
#26=CYLINDRICAL_SURFACE('',#271,2.79999999999997);
#27=CYLINDRICAL_SURFACE('',#276,1.49999999999996);
#28=CYLINDRICAL_SURFACE('',#281,8.35);
#29=CYLINDRICAL_SURFACE('',#285,9.75);
#30=ORIENTED_EDGE('',*,*,#70,.F.);
#31=ORIENTED_EDGE('',*,*,#71,.T.);
#32=ORIENTED_EDGE('',*,*,#72,.T.);
#33=ORIENTED_EDGE('',*,*,#70,.T.);
#34=ORIENTED_EDGE('',*,*,#73,.T.);
#35=ORIENTED_EDGE('',*,*,#74,.F.);
#36=ORIENTED_EDGE('',*,*,#75,.F.);
#37=ORIENTED_EDGE('',*,*,#74,.T.);
#38=ORIENTED_EDGE('',*,*,#76,.F.);
#39=ORIENTED_EDGE('',*,*,#75,.T.);
#40=ORIENTED_EDGE('',*,*,#77,.F.);
#41=ORIENTED_EDGE('',*,*,#76,.T.);
#42=ORIENTED_EDGE('',*,*,#78,.F.);
#43=ORIENTED_EDGE('',*,*,#77,.T.);
#44=ORIENTED_EDGE('',*,*,#79,.F.);
#45=ORIENTED_EDGE('',*,*,#78,.T.);
#46=ORIENTED_EDGE('',*,*,#80,.F.);
#47=ORIENTED_EDGE('',*,*,#79,.T.);
#48=ORIENTED_EDGE('',*,*,#81,.F.);
#49=ORIENTED_EDGE('',*,*,#80,.T.);
#50=ORIENTED_EDGE('',*,*,#82,.F.);
#51=ORIENTED_EDGE('',*,*,#81,.T.);
#52=ORIENTED_EDGE('',*,*,#83,.T.);
#53=ORIENTED_EDGE('',*,*,#82,.T.);
#54=ORIENTED_EDGE('',*,*,#84,.T.);
#55=ORIENTED_EDGE('',*,*,#85,.F.);
#56=ORIENTED_EDGE('',*,*,#86,.F.);
#57=ORIENTED_EDGE('',*,*,#85,.T.);
#58=ORIENTED_EDGE('',*,*,#86,.T.);
#59=ORIENTED_EDGE('',*,*,#87,.F.);
#60=ORIENTED_EDGE('',*,*,#88,.F.);
#61=ORIENTED_EDGE('',*,*,#87,.T.);
#62=ORIENTED_EDGE('',*,*,#89,.F.);
#63=ORIENTED_EDGE('',*,*,#88,.T.);
#64=ORIENTED_EDGE('',*,*,#71,.F.);
#65=ORIENTED_EDGE('',*,*,#89,.T.);
#66=ORIENTED_EDGE('',*,*,#72,.F.);
#67=ORIENTED_EDGE('',*,*,#73,.F.);
#68=ORIENTED_EDGE('',*,*,#83,.F.);
#69=ORIENTED_EDGE('',*,*,#84,.F.);
#70=EDGE_CURVE('',#90,#90,#110,.T.);
#71=EDGE_CURVE('',#91,#91,#111,.T.);
#72=EDGE_CURVE('',#92,#92,#112,.T.);
#73=EDGE_CURVE('',#93,#93,#113,.T.);
#74=EDGE_CURVE('',#94,#94,#114,.T.);
#75=EDGE_CURVE('',#95,#95,#115,.T.);
#76=EDGE_CURVE('',#96,#96,#116,.T.);
#77=EDGE_CURVE('',#97,#97,#117,.T.);
#78=EDGE_CURVE('',#98,#98,#118,.T.);
#79=EDGE_CURVE('',#99,#99,#119,.T.);
#80=EDGE_CURVE('',#100,#100,#120,.T.);
#81=EDGE_CURVE('',#101,#101,#121,.T.);
#82=EDGE_CURVE('',#102,#102,#122,.T.);
#83=EDGE_CURVE('',#103,#103,#123,.T.);
#84=EDGE_CURVE('',#104,#104,#124,.F.);
#85=EDGE_CURVE('',#105,#105,#125,.T.);
#86=EDGE_CURVE('',#106,#106,#126,.T.);
#87=EDGE_CURVE('',#107,#107,#127,.T.);
#88=EDGE_CURVE('',#108,#108,#128,.T.);
#89=EDGE_CURVE('',#109,#109,#129,.T.);
#90=VERTEX_POINT('',#375);
#91=VERTEX_POINT('',#377);
#92=VERTEX_POINT('',#380);
#93=VERTEX_POINT('',#383);
#94=VERTEX_POINT('',#385);
#95=VERTEX_POINT('',#388);
#96=VERTEX_POINT('',#391);
#97=VERTEX_POINT('',#394);
#98=VERTEX_POINT('',#397);
#99=VERTEX_POINT('',#400);
#100=VERTEX_POINT('',#403);
#101=VERTEX_POINT('',#406);
#102=VERTEX_POINT('',#409);
#103=VERTEX_POINT('',#412);
#104=VERTEX_POINT('',#415);
#105=VERTEX_POINT('',#417);
#106=VERTEX_POINT('',#420);
#107=VERTEX_POINT('',#424);
#108=VERTEX_POINT('',#427);
#109=VERTEX_POINT('',#430);
#110=CIRCLE('',#248,8.40000000000006);
#111=CIRCLE('',#249,9.75);
#112=CIRCLE('',#251,8.4);
#113=CIRCLE('',#253,8.13205080756888);
#114=CIRCLE('',#254,6.49999999999997);
#115=CIRCLE('',#256,6.49999999999997);
#116=CIRCLE('',#258,5.44999999999997);
#117=CIRCLE('',#260,5.44999999999997);
#118=CIRCLE('',#262,4.49999999999997);
#119=CIRCLE('',#264,4.49999999999997);
#120=CIRCLE('',#266,3.49999999999997);
#121=CIRCLE('',#268,3.49999999999997);
#122=CIRCLE('',#270,2.79999999999997);
#123=CIRCLE('',#272,2.79999999999997);
#124=CIRCLE('',#274,2.29999999999997);
#125=CIRCLE('',#275,1.49999999999997);
#126=CIRCLE('',#277,1.49999999999996);
#127=CIRCLE('',#280,8.35);
#128=CIRCLE('',#282,8.35);
#129=CIRCLE('',#284,9.75);
#130=EDGE_LOOP('',(#30));
#131=EDGE_LOOP('',(#31));
#132=EDGE_LOOP('',(#32));
#133=EDGE_LOOP('',(#33));
#134=EDGE_LOOP('',(#34));
#135=EDGE_LOOP('',(#35));
#136=EDGE_LOOP('',(#36));
#137=EDGE_LOOP('',(#37));
#138=EDGE_LOOP('',(#38));
#139=EDGE_LOOP('',(#39));
#140=EDGE_LOOP('',(#40));
#141=EDGE_LOOP('',(#41));
#142=EDGE_LOOP('',(#42));
#143=EDGE_LOOP('',(#43));
#144=EDGE_LOOP('',(#44));
#145=EDGE_LOOP('',(#45));
#146=EDGE_LOOP('',(#46));
#147=EDGE_LOOP('',(#47));
#148=EDGE_LOOP('',(#48));
#149=EDGE_LOOP('',(#49));
#150=EDGE_LOOP('',(#50));
#151=EDGE_LOOP('',(#51));
#152=EDGE_LOOP('',(#52));
#153=EDGE_LOOP('',(#53));
#154=EDGE_LOOP('',(#54));
#155=EDGE_LOOP('',(#55));
#156=EDGE_LOOP('',(#56));
#157=EDGE_LOOP('',(#57));
#158=EDGE_LOOP('',(#58));
#159=EDGE_LOOP('',(#59));
#160=EDGE_LOOP('',(#60));
#161=EDGE_LOOP('',(#61));
#162=EDGE_LOOP('',(#62));
#163=EDGE_LOOP('',(#63));
#164=EDGE_LOOP('',(#64));
#165=EDGE_LOOP('',(#65));
#166=EDGE_LOOP('',(#66));
#167=EDGE_LOOP('',(#67));
#168=EDGE_LOOP('',(#68));
#169=EDGE_LOOP('',(#69));
#170=FACE_BOUND('',#130,.T.);
#171=FACE_BOUND('',#131,.T.);
#172=FACE_BOUND('',#132,.T.);
#173=FACE_BOUND('',#133,.T.);
#174=FACE_BOUND('',#134,.T.);
#175=FACE_BOUND('',#135,.T.);
#176=FACE_BOUND('',#136,.T.);
#177=FACE_BOUND('',#137,.T.);
#178=FACE_BOUND('',#138,.T.);
#179=FACE_BOUND('',#139,.T.);
#180=FACE_BOUND('',#140,.T.);
#181=FACE_BOUND('',#141,.T.);
#182=FACE_BOUND('',#142,.T.);
#183=FACE_BOUND('',#143,.T.);
#184=FACE_BOUND('',#144,.T.);
#185=FACE_BOUND('',#145,.T.);
#186=FACE_BOUND('',#146,.T.);
#187=FACE_BOUND('',#147,.T.);
#188=FACE_BOUND('',#148,.T.);
#189=FACE_BOUND('',#149,.T.);
#190=FACE_BOUND('',#150,.T.);
#191=FACE_BOUND('',#151,.T.);
#192=FACE_BOUND('',#152,.T.);
#193=FACE_BOUND('',#153,.T.);
#194=FACE_BOUND('',#154,.T.);
#195=FACE_BOUND('',#155,.T.);
#196=FACE_BOUND('',#156,.T.);
#197=FACE_BOUND('',#157,.T.);
#198=FACE_BOUND('',#158,.T.);
#199=FACE_BOUND('',#159,.T.);
#200=FACE_BOUND('',#160,.T.);
#201=FACE_BOUND('',#161,.T.);
#202=FACE_BOUND('',#162,.T.);
#203=FACE_BOUND('',#163,.T.);
#204=FACE_BOUND('',#164,.T.);
#205=FACE_BOUND('',#165,.T.);
#206=FACE_BOUND('',#166,.T.);
#207=FACE_BOUND('',#167,.T.);
#208=FACE_BOUND('',#168,.T.);
#209=FACE_BOUND('',#169,.T.);
#210=CONICAL_SURFACE('',#247,9.75,0.523598775598302);
#211=CONICAL_SURFACE('',#252,8.39999999999994,0.523598775598297);
#212=CONICAL_SURFACE('',#287,2.29999999999997,0.785398163397448);
#213=ADVANCED_FACE('',(#170,#171),#210,.T.);
#214=ADVANCED_FACE('',(#172,#173),#21,.T.);
#215=ADVANCED_FACE('',(#174,#175),#211,.T.);
#216=ADVANCED_FACE('',(#176,#177),#22,.T.);
#217=ADVANCED_FACE('',(#178,#179),#13,.F.);
#218=ADVANCED_FACE('',(#180,#181),#23,.T.);
#219=ADVANCED_FACE('',(#182,#183),#14,.F.);
#220=ADVANCED_FACE('',(#184,#185),#24,.T.);
#221=ADVANCED_FACE('',(#186,#187),#15,.F.);
#222=ADVANCED_FACE('',(#188,#189),#25,.T.);
#223=ADVANCED_FACE('',(#190,#191),#16,.F.);
#224=ADVANCED_FACE('',(#192,#193),#26,.T.);
#225=ADVANCED_FACE('',(#194,#195),#17,.F.);
#226=ADVANCED_FACE('',(#196,#197),#27,.F.);
#227=ADVANCED_FACE('',(#198),#18,.F.);
#228=ADVANCED_FACE('',(#199),#19,.F.);
#229=ADVANCED_FACE('',(#200,#201),#28,.F.);
#230=ADVANCED_FACE('',(#202,#203),#20,.F.);
#231=ADVANCED_FACE('',(#204,#205),#29,.T.);
#232=ADVANCED_FACE('',(#206,#207),#12,.T.);
#233=ADVANCED_FACE('',(#208,#209),#212,.T.);
#234=CLOSED_SHELL('',(#213,#214,#215,#216,#217,#218,#219,#220,#221,#222,
#223,#224,#225,#226,#227,#228,#229,#230,#231,#232,#233));
#235=STYLED_ITEM('',(#236),#243);
#236=PRESENTATION_STYLE_ASSIGNMENT((#237));
#237=SURFACE_STYLE_USAGE(.BOTH.,#238);
#238=SURFACE_SIDE_STYLE('',(#239));
#239=SURFACE_STYLE_FILL_AREA(#240);
#240=FILL_AREA_STYLE('',(#241));
#241=FILL_AREA_STYLE_COLOUR('',#242);
#242=COLOUR_RGB('',0.752941191196442,0.752941191196442,0.752941191196442);
#243=MANIFOLD_SOLID_BREP('',#234);
#244=SHAPE_DEFINITION_REPRESENTATION(#440,#245);
#245=SHAPE_REPRESENTATION('13-18-S-PY_Mischrohr',(#246),#435);
#246=AXIS2_PLACEMENT_3D('',#372,#288,#289);
#247=AXIS2_PLACEMENT_3D('',#373,#290,#291);
#248=AXIS2_PLACEMENT_3D('',#374,#292,#293);
#249=AXIS2_PLACEMENT_3D('',#376,#294,#295);
#250=AXIS2_PLACEMENT_3D('',#378,#296,#297);
#251=AXIS2_PLACEMENT_3D('',#379,#298,#299);
#252=AXIS2_PLACEMENT_3D('',#381,#300,#301);
#253=AXIS2_PLACEMENT_3D('',#382,#302,#303);
#254=AXIS2_PLACEMENT_3D('',#384,#304,#305);
#255=AXIS2_PLACEMENT_3D('',#386,#306,#307);
#256=AXIS2_PLACEMENT_3D('',#387,#308,#309);
#257=AXIS2_PLACEMENT_3D('',#389,#310,#311);
#258=AXIS2_PLACEMENT_3D('',#390,#312,#313);
#259=AXIS2_PLACEMENT_3D('',#392,#314,#315);
#260=AXIS2_PLACEMENT_3D('',#393,#316,#317);
#261=AXIS2_PLACEMENT_3D('',#395,#318,#319);
#262=AXIS2_PLACEMENT_3D('',#396,#320,#321);
#263=AXIS2_PLACEMENT_3D('',#398,#322,#323);
#264=AXIS2_PLACEMENT_3D('',#399,#324,#325);
#265=AXIS2_PLACEMENT_3D('',#401,#326,#327);
#266=AXIS2_PLACEMENT_3D('',#402,#328,#329);
#267=AXIS2_PLACEMENT_3D('',#404,#330,#331);
#268=AXIS2_PLACEMENT_3D('',#405,#332,#333);
#269=AXIS2_PLACEMENT_3D('',#407,#334,#335);
#270=AXIS2_PLACEMENT_3D('',#408,#336,#337);
#271=AXIS2_PLACEMENT_3D('',#410,#338,#339);
#272=AXIS2_PLACEMENT_3D('',#411,#340,#341);
#273=AXIS2_PLACEMENT_3D('',#413,#342,#343);
#274=AXIS2_PLACEMENT_3D('',#414,#344,#345);
#275=AXIS2_PLACEMENT_3D('',#416,#346,#347);
#276=AXIS2_PLACEMENT_3D('',#418,#348,#349);
#277=AXIS2_PLACEMENT_3D('',#419,#350,#351);
#278=AXIS2_PLACEMENT_3D('',#421,#352,#353);
#279=AXIS2_PLACEMENT_3D('',#422,#354,#355);
#280=AXIS2_PLACEMENT_3D('',#423,#356,#357);
#281=AXIS2_PLACEMENT_3D('',#425,#358,#359);
#282=AXIS2_PLACEMENT_3D('',#426,#360,#361);
#283=AXIS2_PLACEMENT_3D('',#428,#362,#363);
#284=AXIS2_PLACEMENT_3D('',#429,#364,#365);
#285=AXIS2_PLACEMENT_3D('',#431,#366,#367);
#286=AXIS2_PLACEMENT_3D('',#432,#368,#369);
#287=AXIS2_PLACEMENT_3D('',#433,#370,#371);
#288=DIRECTION('',(0.,0.,1.));
#289=DIRECTION('',(1.,0.,0.));
#290=DIRECTION('',(0.,0.,1.));
#291=DIRECTION('',(1.,0.,0.));
#292=DIRECTION('',(0.,0.,-1.));
#293=DIRECTION('',(-1.,0.,0.));
#294=DIRECTION('',(0.,0.,-1.));
#295=DIRECTION('',(-1.,0.,0.));
#296=DIRECTION('',(0.,0.,-1.));
#297=DIRECTION('',(-1.,0.,0.));
#298=DIRECTION('',(0.,0.,1.));
#299=DIRECTION('',(1.,0.,0.));
#300=DIRECTION('',(0.,0.,1.));
#301=DIRECTION('',(1.,0.,0.));
#302=DIRECTION('',(0.,0.,-1.));
#303=DIRECTION('',(-1.,0.,0.));
#304=DIRECTION('',(0.,0.,-1.));
#305=DIRECTION('',(-1.,0.,0.));
#306=DIRECTION('',(0.,0.,-1.));
#307=DIRECTION('',(-1.,0.,0.));
#308=DIRECTION('',(0.,0.,-1.));
#309=DIRECTION('',(-1.,0.,0.));
#310=DIRECTION('',(0.,0.,1.));
#311=DIRECTION('',(1.,0.,0.));
#312=DIRECTION('',(0.,0.,-1.));
#313=DIRECTION('',(-1.,0.,0.));
#314=DIRECTION('',(0.,0.,-1.));
#315=DIRECTION('',(-1.,0.,0.));
#316=DIRECTION('',(0.,0.,-1.));
#317=DIRECTION('',(-1.,0.,0.));
#318=DIRECTION('',(0.,0.,1.));
#319=DIRECTION('',(1.,0.,0.));
#320=DIRECTION('',(0.,0.,-1.));
#321=DIRECTION('',(-1.,0.,0.));
#322=DIRECTION('',(0.,0.,-1.));
#323=DIRECTION('',(-1.,0.,0.));
#324=DIRECTION('',(0.,0.,-1.));
#325=DIRECTION('',(-1.,0.,0.));
#326=DIRECTION('',(0.,0.,1.));
#327=DIRECTION('',(1.,0.,0.));
#328=DIRECTION('',(0.,0.,-1.));
#329=DIRECTION('',(-1.,0.,0.));
#330=DIRECTION('',(0.,0.,-1.));
#331=DIRECTION('',(-1.,0.,0.));
#332=DIRECTION('',(0.,0.,-1.));
#333=DIRECTION('',(-1.,0.,0.));
#334=DIRECTION('',(0.,0.,1.));
#335=DIRECTION('',(1.,0.,0.));
#336=DIRECTION('',(0.,0.,-1.));
#337=DIRECTION('',(-1.,0.,0.));
#338=DIRECTION('',(0.,0.,-1.));
#339=DIRECTION('',(-1.,0.,0.));
#340=DIRECTION('',(0.,0.,1.));
#341=DIRECTION('',(1.,0.,0.));
#342=DIRECTION('',(0.,0.,1.));
#343=DIRECTION('',(1.,0.,0.));
#344=DIRECTION('',(0.,0.,1.));
#345=DIRECTION('',(1.,0.,0.));
#346=DIRECTION('',(0.,0.,-1.));
#347=DIRECTION('',(-1.,0.,0.));
#348=DIRECTION('',(0.,0.,-1.));
#349=DIRECTION('',(-1.,0.,0.));
#350=DIRECTION('',(0.,0.,-1.));
#351=DIRECTION('',(-1.,0.,0.));
#352=DIRECTION('',(0.,0.,1.));
#353=DIRECTION('',(1.,0.,0.));
#354=DIRECTION('',(0.,0.,-1.));
#355=DIRECTION('',(-1.,0.,0.));
#356=DIRECTION('',(0.,0.,-1.));
#357=DIRECTION('',(-1.,0.,0.));
#358=DIRECTION('',(0.,0.,-1.));
#359=DIRECTION('',(-1.,0.,0.));
#360=DIRECTION('',(0.,0.,-1.));
#361=DIRECTION('',(-1.,0.,0.));
#362=DIRECTION('',(0.,0.,-1.));
#363=DIRECTION('',(-1.,0.,0.));
#364=DIRECTION('',(0.,0.,-1.));
#365=DIRECTION('',(-1.,0.,0.));
#366=DIRECTION('',(0.,0.,-1.));
#367=DIRECTION('',(-1.,0.,0.));
#368=DIRECTION('',(0.,0.,1.));
#369=DIRECTION('',(1.,0.,0.));
#370=DIRECTION('',(0.,0.,1.));
#371=DIRECTION('',(1.,0.,0.));
#372=CARTESIAN_POINT('',(0.,0.,0.));
#373=CARTESIAN_POINT('',(0.,0.,-6.5));
#374=CARTESIAN_POINT('',(0.,0.,-8.83826859021786));
#375=CARTESIAN_POINT('',(-8.40000000000006,0.,-8.83826859021786));
#376=CARTESIAN_POINT('',(0.,0.,-6.5));
#377=CARTESIAN_POINT('',(-9.75,0.,-6.5));
#378=CARTESIAN_POINT('',(0.,0.,0.));
#379=CARTESIAN_POINT('',(0.,0.,-203.173205080757));
#380=CARTESIAN_POINT('',(8.4,0.,-203.173205080757));
#381=CARTESIAN_POINT('',(0.,0.,-203.709103465619));
#382=CARTESIAN_POINT('',(0.,0.,-204.173205080757));
#383=CARTESIAN_POINT('',(-8.13205080756888,0.,-204.173205080757));
#384=CARTESIAN_POINT('',(0.,0.,-207.));
#385=CARTESIAN_POINT('',(-6.49999999999997,0.,-207.));
#386=CARTESIAN_POINT('',(0.,0.,0.));
#387=CARTESIAN_POINT('',(0.,0.,-211.));
#388=CARTESIAN_POINT('',(-6.49999999999997,0.,-211.));
#389=CARTESIAN_POINT('',(-5.44999999999997,0.,-211.));
#390=CARTESIAN_POINT('',(0.,0.,-211.));
#391=CARTESIAN_POINT('',(-5.44999999999997,0.,-211.));
#392=CARTESIAN_POINT('',(0.,0.,0.));
#393=CARTESIAN_POINT('',(0.,0.,-215.5));
#394=CARTESIAN_POINT('',(-5.44999999999997,0.,-215.5));
#395=CARTESIAN_POINT('',(-4.49999999999997,0.,-215.5));
#396=CARTESIAN_POINT('',(0.,0.,-215.5));
#397=CARTESIAN_POINT('',(-4.49999999999997,0.,-215.5));
#398=CARTESIAN_POINT('',(0.,0.,0.));
#399=CARTESIAN_POINT('',(0.,0.,-220.));
#400=CARTESIAN_POINT('',(-4.49999999999997,0.,-220.));
#401=CARTESIAN_POINT('',(-3.49999999999997,0.,-220.));
#402=CARTESIAN_POINT('',(0.,0.,-220.));
#403=CARTESIAN_POINT('',(-3.49999999999997,0.,-220.));
#404=CARTESIAN_POINT('',(0.,0.,0.));
#405=CARTESIAN_POINT('',(0.,0.,-225.));
#406=CARTESIAN_POINT('',(-3.49999999999997,0.,-225.));
#407=CARTESIAN_POINT('',(-2.79999999999997,0.,-225.));
#408=CARTESIAN_POINT('',(0.,0.,-225.));
#409=CARTESIAN_POINT('',(-2.79999999999997,0.,-225.));
#410=CARTESIAN_POINT('',(0.,0.,0.));
#411=CARTESIAN_POINT('',(0.,0.,-229.5));
#412=CARTESIAN_POINT('',(2.79999999999997,0.,-229.5));
#413=CARTESIAN_POINT('',(-1.49999999999997,0.,-230.));
#414=CARTESIAN_POINT('',(0.,0.,-230.));
#415=CARTESIAN_POINT('',(2.29999999999997,0.,-230.));
#416=CARTESIAN_POINT('',(0.,0.,-230.));
#417=CARTESIAN_POINT('',(-1.49999999999997,0.,-230.));
#418=CARTESIAN_POINT('',(0.,0.,0.));
#419=CARTESIAN_POINT('',(0.,0.,-206.));
#420=CARTESIAN_POINT('',(-1.49999999999996,0.,-206.));
#421=CARTESIAN_POINT('',(-1.49999999999996,0.,-206.));
#422=CARTESIAN_POINT('',(-8.35,0.,-6.));
#423=CARTESIAN_POINT('',(0.,0.,-6.));
#424=CARTESIAN_POINT('',(-8.35,0.,-6.));
#425=CARTESIAN_POINT('',(0.,0.,0.));
#426=CARTESIAN_POINT('',(0.,0.,6.91383364356396E-16));
#427=CARTESIAN_POINT('',(-8.35,0.,6.91383364356396E-16));
#428=CARTESIAN_POINT('',(-8.35,0.,6.05658088416082E-16));
#429=CARTESIAN_POINT('',(0.,0.,5.19932812475767E-16));
#430=CARTESIAN_POINT('',(-9.75,0.,5.19932812475767E-16));
#431=CARTESIAN_POINT('',(0.,0.,0.));
#432=CARTESIAN_POINT('',(0.,0.,-203.173205080757));
#433=CARTESIAN_POINT('',(0.,0.,-230.));
#434=MECHANICAL_DESIGN_GEOMETRIC_PRESENTATION_REPRESENTATION('',(#235),
#435);
#435=(
GEOMETRIC_REPRESENTATION_CONTEXT(3)
GLOBAL_UNCERTAINTY_ASSIGNED_CONTEXT((#436))
GLOBAL_UNIT_ASSIGNED_CONTEXT((#439,#438,#437))
REPRESENTATION_CONTEXT('13-18-S-PY_Mischrohr','TOP_LEVEL_ASSEMBLY_PART')
);
#436=UNCERTAINTY_MEASURE_WITH_UNIT(LENGTH_MEASURE(0.005),#439,
'DISTANCE_ACCURACY_VALUE','Maximum Tolerance applied to model');
#437=(
NAMED_UNIT(*)
SI_UNIT($,.STERADIAN.)
SOLID_ANGLE_UNIT()
);
#438=(
NAMED_UNIT(*)
PLANE_ANGLE_UNIT()
SI_UNIT($,.RADIAN.)
);
#439=(
LENGTH_UNIT()
NAMED_UNIT(*)
SI_UNIT(.MILLI.,.METRE.)
);
#440=PRODUCT_DEFINITION_SHAPE('','',#441);
#441=PRODUCT_DEFINITION('','',#443,#442);
#442=PRODUCT_DEFINITION_CONTEXT('',#449,'design');
#443=PRODUCT_DEFINITION_FORMATION_WITH_SPECIFIED_SOURCE('','',#445,
 .NOT_KNOWN.);
#444=PRODUCT_RELATED_PRODUCT_CATEGORY('','',(#445));
#445=PRODUCT('13-18-S-PY_Mischrohr','13-18-S-PY_Mischrohr',
'13-18-S-PY_Mischrohr',(#447));
#446=PRODUCT_CATEGORY('','');
#447=PRODUCT_CONTEXT('',#449,'mechanical');
#448=APPLICATION_PROTOCOL_DEFINITION('international standard',
'ap242_managed_model_based_3d_engineering',2011,#449);
#449=APPLICATION_CONTEXT('managed model based 3d engineering');
ENDSEC;
END-ISO-10303-21;
