ISO-10303-21;
HEADER;
/* Generated by software containing ST-Developer
 * from STEP Tools, Inc. (www.steptools.com) 
 */
/* OPTION: strings as raw bytes, not using required /X/ escapes */

FILE_DESCRIPTION(
/* description */ ('Unknown',
'CAx-IF Rec.Pracs.---Representation and Presentation of Product Manufa
cturing Information (PMI)---4.0---2014-10-13',
'CAx-IF Rec.Pracs.---3D Tessellated Geometry---0.4---2014-09-14','2;1'),

/* implementation_level */ '2;1');

FILE_NAME(
/* name */ '5-24H-LS-PY_Mischrohr',
/* time_stamp */ '2021-04-14T13:42:28+02:00',
/* author */ ('Unknown'),
/* organization */ ('Unknown'),
/* preprocessor_version */ 'ST-DEVELOPER v16.7',
/* originating_system */ 'Solid Edge',
/* authorisation */ 'Unknown');

FILE_SCHEMA (('AP242_MANAGED_MODEL_BASED_3D_ENGINEERING_MIM_LF { 1 0 10303 442 1 1 4 }'));
ENDSEC;

DATA;
#10=SHAPE_REPRESENTATION_RELATIONSHIP('','',#347,#11);
#11=ADVANCED_BREP_SHAPE_REPRESENTATION('',(#345),#635);
#12=LINE('',#587,#28);
#13=LINE('',#589,#29);
#14=LINE('',#591,#30);
#15=LINE('',#593,#31);
#16=LINE('',#595,#32);
#17=LINE('',#597,#33);
#18=LINE('',#599,#34);
#19=LINE('',#601,#35);
#20=LINE('',#602,#36);
#21=LINE('',#604,#37);
#22=LINE('',#606,#38);
#23=LINE('',#608,#39);
#24=LINE('',#609,#40);
#25=LINE('',#611,#41);
#26=LINE('',#612,#42);
#27=LINE('',#613,#43);
#28=VECTOR('',#441,1000.);
#29=VECTOR('',#442,1000.);
#30=VECTOR('',#443,1000.);
#31=VECTOR('',#444,1000.);
#32=VECTOR('',#445,1000.);
#33=VECTOR('',#448,1000.);
#34=VECTOR('',#449,1000.);
#35=VECTOR('',#450,1000.);
#36=VECTOR('',#451,1000.);
#37=VECTOR('',#454,1000.);
#38=VECTOR('',#455,1000.);
#39=VECTOR('',#456,1000.);
#40=VECTOR('',#457,1000.);
#41=VECTOR('',#460,1000.);
#42=VECTOR('',#461,1000.);
#43=VECTOR('',#462,1000.);
#44=PLANE('',#368);
#45=PLANE('',#371);
#46=PLANE('',#372);
#47=PLANE('',#373);
#48=PLANE('',#374);
#49=PLANE('',#375);
#50=PLANE('',#376);
#51=PLANE('',#378);
#52=PLANE('',#379);
#53=PLANE('',#380);
#54=PLANE('',#381);
#55=PLANE('',#382);
#56=PLANE('',#390);
#57=CYLINDRICAL_SURFACE('',#361,3.74999999999999);
#58=CYLINDRICAL_SURFACE('',#362,2.34999999999999);
#59=CYLINDRICAL_SURFACE('',#366,8.35000000000002);
#60=CYLINDRICAL_SURFACE('',#370,9.75000000000002);
#61=CYLINDRICAL_SURFACE('',#385,0.999999999999999);
#62=B_SPLINE_CURVE_WITH_KNOTS('',3,(#500,#501,#502,#503,#504,#505,#506,
#507,#508,#509,#510,#511,#512),.UNSPECIFIED.,.F.,.F.,(4,1,1,1,1,1,1,1,1,
1,4),(0.00508413235312594,0.00560633621352339,0.00612854007392084,0.00665074393431829,
0.00691184586451702,0.00717294779471574,0.00743404972491447,0.00769515165511319,
0.00821735551551064,0.00873955937590809,0.00926176323630554),
 .UNSPECIFIED.);
#63=B_SPLINE_CURVE_WITH_KNOTS('',3,(#516,#517,#518,#519,#520,#521,#522,
#523,#524,#525,#526,#527,#528),.UNSPECIFIED.,.F.,.F.,(4,1,1,1,1,1,1,1,1,
1,4),(0.00508413235312596,0.00560633621352339,0.00612854007392082,0.00665074393431824,
0.00691184586451696,0.00717294779471567,0.00743404972491439,0.0076951516551131,
0.00821735551551053,0.00873955937590796,0.00926176323630538),
 .UNSPECIFIED.);
#64=B_SPLINE_CURVE_WITH_KNOTS('',3,(#532,#533,#534,#535,#536,#537,#538,
#539,#540,#541,#542,#543,#544),.UNSPECIFIED.,.F.,.F.,(4,1,1,1,1,1,1,1,1,
1,4),(0.00508413235312594,0.00560633621352339,0.00612854007392084,0.00665074393431829,
0.00691184586451702,0.00717294779471574,0.00743404972491447,0.00769515165511319,
0.00821735551551064,0.00873955937590809,0.00926176323630554),
 .UNSPECIFIED.);
#65=B_SPLINE_CURVE_WITH_KNOTS('',3,(#548,#549,#550,#551,#552,#553,#554,
#555,#556,#557,#558,#559,#560),.UNSPECIFIED.,.F.,.F.,(4,1,1,1,1,1,1,1,1,
1,4),(0.00508413235312595,0.00560633621352344,0.00612854007392093,0.00665074393431843,
0.00691184586451717,0.00717294779471592,0.00743404972491466,0.00769515165511341,
0.0082173555155109,0.0087395593759084,0.00926176323630589),
 .UNSPECIFIED.);
#66=ORIENTED_EDGE('',*,*,#142,.T.);
#67=ORIENTED_EDGE('',*,*,#143,.F.);
#68=ORIENTED_EDGE('',*,*,#144,.T.);
#69=ORIENTED_EDGE('',*,*,#145,.F.);
#70=ORIENTED_EDGE('',*,*,#146,.T.);
#71=ORIENTED_EDGE('',*,*,#147,.F.);
#72=ORIENTED_EDGE('',*,*,#148,.T.);
#73=ORIENTED_EDGE('',*,*,#149,.F.);
#74=ORIENTED_EDGE('',*,*,#150,.T.);
#75=ORIENTED_EDGE('',*,*,#151,.F.);
#76=ORIENTED_EDGE('',*,*,#152,.F.);
#77=ORIENTED_EDGE('',*,*,#153,.F.);
#78=ORIENTED_EDGE('',*,*,#154,.T.);
#79=ORIENTED_EDGE('',*,*,#142,.F.);
#80=ORIENTED_EDGE('',*,*,#153,.T.);
#81=ORIENTED_EDGE('',*,*,#155,.F.);
#82=ORIENTED_EDGE('',*,*,#151,.T.);
#83=ORIENTED_EDGE('',*,*,#156,.F.);
#84=ORIENTED_EDGE('',*,*,#155,.T.);
#85=ORIENTED_EDGE('',*,*,#157,.F.);
#86=ORIENTED_EDGE('',*,*,#156,.T.);
#87=ORIENTED_EDGE('',*,*,#158,.F.);
#88=ORIENTED_EDGE('',*,*,#157,.T.);
#89=ORIENTED_EDGE('',*,*,#154,.F.);
#90=ORIENTED_EDGE('',*,*,#158,.T.);
#91=ORIENTED_EDGE('',*,*,#152,.T.);
#92=ORIENTED_EDGE('',*,*,#150,.F.);
#93=ORIENTED_EDGE('',*,*,#159,.T.);
#94=ORIENTED_EDGE('',*,*,#160,.T.);
#95=ORIENTED_EDGE('',*,*,#161,.F.);
#96=ORIENTED_EDGE('',*,*,#162,.F.);
#97=ORIENTED_EDGE('',*,*,#163,.T.);
#98=ORIENTED_EDGE('',*,*,#148,.F.);
#99=ORIENTED_EDGE('',*,*,#164,.T.);
#100=ORIENTED_EDGE('',*,*,#165,.T.);
#101=ORIENTED_EDGE('',*,*,#166,.F.);
#102=ORIENTED_EDGE('',*,*,#160,.F.);
#103=ORIENTED_EDGE('',*,*,#167,.T.);
#104=ORIENTED_EDGE('',*,*,#146,.F.);
#105=ORIENTED_EDGE('',*,*,#168,.T.);
#106=ORIENTED_EDGE('',*,*,#169,.T.);
#107=ORIENTED_EDGE('',*,*,#170,.F.);
#108=ORIENTED_EDGE('',*,*,#165,.F.);
#109=ORIENTED_EDGE('',*,*,#171,.T.);
#110=ORIENTED_EDGE('',*,*,#144,.F.);
#111=ORIENTED_EDGE('',*,*,#172,.T.);
#112=ORIENTED_EDGE('',*,*,#162,.T.);
#113=ORIENTED_EDGE('',*,*,#173,.F.);
#114=ORIENTED_EDGE('',*,*,#169,.F.);
#115=ORIENTED_EDGE('',*,*,#174,.T.);
#116=ORIENTED_EDGE('',*,*,#161,.T.);
#117=ORIENTED_EDGE('',*,*,#166,.T.);
#118=ORIENTED_EDGE('',*,*,#170,.T.);
#119=ORIENTED_EDGE('',*,*,#173,.T.);
#120=ORIENTED_EDGE('',*,*,#175,.F.);
#121=ORIENTED_EDGE('',*,*,#168,.F.);
#122=ORIENTED_EDGE('',*,*,#145,.T.);
#123=ORIENTED_EDGE('',*,*,#174,.F.);
#124=ORIENTED_EDGE('',*,*,#172,.F.);
#125=ORIENTED_EDGE('',*,*,#143,.T.);
#126=ORIENTED_EDGE('',*,*,#163,.F.);
#127=ORIENTED_EDGE('',*,*,#159,.F.);
#128=ORIENTED_EDGE('',*,*,#149,.T.);
#129=ORIENTED_EDGE('',*,*,#167,.F.);
#130=ORIENTED_EDGE('',*,*,#164,.F.);
#131=ORIENTED_EDGE('',*,*,#147,.T.);
#132=ORIENTED_EDGE('',*,*,#171,.F.);
#133=ORIENTED_EDGE('',*,*,#176,.T.);
#134=ORIENTED_EDGE('',*,*,#177,.F.);
#135=ORIENTED_EDGE('',*,*,#178,.T.);
#136=ORIENTED_EDGE('',*,*,#177,.T.);
#137=ORIENTED_EDGE('',*,*,#179,.F.);
#138=ORIENTED_EDGE('',*,*,#176,.F.);
#139=ORIENTED_EDGE('',*,*,#179,.T.);
#140=ORIENTED_EDGE('',*,*,#175,.T.);
#141=ORIENTED_EDGE('',*,*,#178,.F.);
#142=EDGE_CURVE('',#180,#180,#210,.T.);
#143=EDGE_CURVE('',#181,#182,#211,.T.);
#144=EDGE_CURVE('',#181,#183,#62,.T.);
#145=EDGE_CURVE('',#184,#183,#212,.T.);
#146=EDGE_CURVE('',#184,#185,#63,.T.);
#147=EDGE_CURVE('',#186,#185,#213,.T.);
#148=EDGE_CURVE('',#186,#187,#64,.T.);
#149=EDGE_CURVE('',#188,#187,#214,.T.);
#150=EDGE_CURVE('',#188,#182,#65,.T.);
#151=EDGE_CURVE('',#189,#189,#215,.T.);
#152=EDGE_CURVE('',#190,#190,#216,.F.);
#153=EDGE_CURVE('',#191,#191,#217,.T.);
#154=EDGE_CURVE('',#192,#192,#218,.T.);
#155=EDGE_CURVE('',#193,#193,#219,.T.);
#156=EDGE_CURVE('',#194,#194,#220,.T.);
#157=EDGE_CURVE('',#195,#195,#221,.T.);
#158=EDGE_CURVE('',#196,#196,#222,.T.);
#159=EDGE_CURVE('',#188,#197,#12,.T.);
#160=EDGE_CURVE('',#197,#198,#13,.T.);
#161=EDGE_CURVE('',#199,#198,#14,.T.);
#162=EDGE_CURVE('',#200,#199,#15,.T.);
#163=EDGE_CURVE('',#200,#182,#16,.T.);
#164=EDGE_CURVE('',#186,#201,#17,.T.);
#165=EDGE_CURVE('',#201,#202,#18,.T.);
#166=EDGE_CURVE('',#198,#202,#19,.T.);
#167=EDGE_CURVE('',#197,#187,#20,.T.);
#168=EDGE_CURVE('',#184,#203,#21,.T.);
#169=EDGE_CURVE('',#203,#204,#22,.T.);
#170=EDGE_CURVE('',#202,#204,#23,.T.);
#171=EDGE_CURVE('',#201,#185,#24,.T.);
#172=EDGE_CURVE('',#181,#200,#25,.T.);
#173=EDGE_CURVE('',#204,#199,#26,.T.);
#174=EDGE_CURVE('',#203,#183,#27,.T.);
#175=EDGE_CURVE('',#205,#205,#223,.T.);
#176=EDGE_CURVE('',#206,#206,#224,.F.);
#177=EDGE_CURVE('',#207,#207,#225,.T.);
#178=EDGE_CURVE('',#208,#208,#226,.F.);
#179=EDGE_CURVE('',#209,#209,#227,.F.);
#180=VERTEX_POINT('',#496);
#181=VERTEX_POINT('',#498);
#182=VERTEX_POINT('',#499);
#183=VERTEX_POINT('',#513);
#184=VERTEX_POINT('',#515);
#185=VERTEX_POINT('',#529);
#186=VERTEX_POINT('',#531);
#187=VERTEX_POINT('',#545);
#188=VERTEX_POINT('',#547);
#189=VERTEX_POINT('',#563);
#190=VERTEX_POINT('',#565);
#191=VERTEX_POINT('',#568);
#192=VERTEX_POINT('',#570);
#193=VERTEX_POINT('',#574);
#194=VERTEX_POINT('',#577);
#195=VERTEX_POINT('',#580);
#196=VERTEX_POINT('',#583);
#197=VERTEX_POINT('',#588);
#198=VERTEX_POINT('',#590);
#199=VERTEX_POINT('',#592);
#200=VERTEX_POINT('',#594);
#201=VERTEX_POINT('',#598);
#202=VERTEX_POINT('',#600);
#203=VERTEX_POINT('',#605);
#204=VERTEX_POINT('',#607);
#205=VERTEX_POINT('',#616);
#206=VERTEX_POINT('',#623);
#207=VERTEX_POINT('',#625);
#208=VERTEX_POINT('',#628);
#209=VERTEX_POINT('',#631);
#210=CIRCLE('',#350,3.74999999999999);
#211=CIRCLE('',#351,2.51);
#212=CIRCLE('',#352,2.51);
#213=CIRCLE('',#353,2.51);
#214=CIRCLE('',#354,2.51);
#215=CIRCLE('',#356,2.34999999999999);
#216=CIRCLE('',#357,1.09328231464416);
#217=CIRCLE('',#359,3.75);
#218=CIRCLE('',#360,9.75000000000002);
#219=CIRCLE('',#363,2.35);
#220=CIRCLE('',#365,8.35000000000002);
#221=CIRCLE('',#367,8.35000000000002);
#222=CIRCLE('',#369,9.75000000000002);
#223=CIRCLE('',#377,2.2);
#224=CIRCLE('',#383,1.5);
#225=CIRCLE('',#384,0.999999999999999);
#226=CIRCLE('',#386,0.999999999999999);
#227=CIRCLE('',#388,2.01110836864257);
#228=EDGE_LOOP('',(#66));
#229=EDGE_LOOP('',(#67,#68,#69,#70,#71,#72,#73,#74));
#230=EDGE_LOOP('',(#75));
#231=EDGE_LOOP('',(#76));
#232=EDGE_LOOP('',(#77));
#233=EDGE_LOOP('',(#78));
#234=EDGE_LOOP('',(#79));
#235=EDGE_LOOP('',(#80));
#236=EDGE_LOOP('',(#81));
#237=EDGE_LOOP('',(#82));
#238=EDGE_LOOP('',(#83));
#239=EDGE_LOOP('',(#84));
#240=EDGE_LOOP('',(#85));
#241=EDGE_LOOP('',(#86));
#242=EDGE_LOOP('',(#87));
#243=EDGE_LOOP('',(#88));
#244=EDGE_LOOP('',(#89));
#245=EDGE_LOOP('',(#90));
#246=EDGE_LOOP('',(#91));
#247=EDGE_LOOP('',(#92,#93,#94,#95,#96,#97));
#248=EDGE_LOOP('',(#98,#99,#100,#101,#102,#103));
#249=EDGE_LOOP('',(#104,#105,#106,#107,#108,#109));
#250=EDGE_LOOP('',(#110,#111,#112,#113,#114,#115));
#251=EDGE_LOOP('',(#116,#117,#118,#119));
#252=EDGE_LOOP('',(#120));
#253=EDGE_LOOP('',(#121,#122,#123));
#254=EDGE_LOOP('',(#124,#125,#126));
#255=EDGE_LOOP('',(#127,#128,#129));
#256=EDGE_LOOP('',(#130,#131,#132));
#257=EDGE_LOOP('',(#133));
#258=EDGE_LOOP('',(#134));
#259=EDGE_LOOP('',(#135));
#260=EDGE_LOOP('',(#136));
#261=EDGE_LOOP('',(#137));
#262=EDGE_LOOP('',(#138));
#263=EDGE_LOOP('',(#139));
#264=EDGE_LOOP('',(#140));
#265=EDGE_LOOP('',(#141));
#266=FACE_BOUND('',#228,.T.);
#267=FACE_BOUND('',#229,.T.);
#268=FACE_BOUND('',#230,.T.);
#269=FACE_BOUND('',#231,.T.);
#270=FACE_BOUND('',#232,.T.);
#271=FACE_BOUND('',#233,.T.);
#272=FACE_BOUND('',#234,.T.);
#273=FACE_BOUND('',#235,.T.);
#274=FACE_BOUND('',#236,.T.);
#275=FACE_BOUND('',#237,.T.);
#276=FACE_BOUND('',#238,.T.);
#277=FACE_BOUND('',#239,.T.);
#278=FACE_BOUND('',#240,.T.);
#279=FACE_BOUND('',#241,.T.);
#280=FACE_BOUND('',#242,.T.);
#281=FACE_BOUND('',#243,.T.);
#282=FACE_BOUND('',#244,.T.);
#283=FACE_BOUND('',#245,.T.);
#284=FACE_BOUND('',#246,.T.);
#285=FACE_BOUND('',#247,.T.);
#286=FACE_BOUND('',#248,.T.);
#287=FACE_BOUND('',#249,.T.);
#288=FACE_BOUND('',#250,.T.);
#289=FACE_BOUND('',#251,.T.);
#290=FACE_BOUND('',#252,.T.);
#291=FACE_BOUND('',#253,.T.);
#292=FACE_BOUND('',#254,.T.);
#293=FACE_BOUND('',#255,.T.);
#294=FACE_BOUND('',#256,.T.);
#295=FACE_BOUND('',#257,.T.);
#296=FACE_BOUND('',#258,.T.);
#297=FACE_BOUND('',#259,.T.);
#298=FACE_BOUND('',#260,.T.);
#299=FACE_BOUND('',#261,.T.);
#300=FACE_BOUND('',#262,.T.);
#301=FACE_BOUND('',#263,.T.);
#302=FACE_BOUND('',#264,.T.);
#303=FACE_BOUND('',#265,.T.);
#304=CONICAL_SURFACE('',#349,3.74999999999999,0.153776300119507);
#305=CONICAL_SURFACE('',#355,1.,0.153776300119507);
#306=CONICAL_SURFACE('',#358,9.75000000000002,0.614662951922167);
#307=CONICAL_SURFACE('',#364,2.35,0.614662951922167);
#308=CONICAL_SURFACE('',#387,1.5,0.796507446060798);
#309=CONICAL_SURFACE('',#389,2.2,0.0222185653267191);
#310=ADVANCED_FACE('',(#266,#267),#304,.T.);
#311=ADVANCED_FACE('',(#268,#269),#305,.F.);
#312=ADVANCED_FACE('',(#270,#271),#306,.T.);
#313=ADVANCED_FACE('',(#272,#273),#57,.T.);
#314=ADVANCED_FACE('',(#274,#275),#58,.F.);
#315=ADVANCED_FACE('',(#276,#277),#307,.F.);
#316=ADVANCED_FACE('',(#278,#279),#59,.F.);
#317=ADVANCED_FACE('',(#280,#281),#44,.F.);
#318=ADVANCED_FACE('',(#282,#283),#60,.T.);
#319=ADVANCED_FACE('',(#284),#45,.F.);
#320=ADVANCED_FACE('',(#285),#46,.T.);
#321=ADVANCED_FACE('',(#286),#47,.T.);
#322=ADVANCED_FACE('',(#287),#48,.T.);
#323=ADVANCED_FACE('',(#288),#49,.T.);
#324=ADVANCED_FACE('',(#289,#290),#50,.T.);
#325=ADVANCED_FACE('',(#291),#51,.F.);
#326=ADVANCED_FACE('',(#292),#52,.F.);
#327=ADVANCED_FACE('',(#293),#53,.F.);
#328=ADVANCED_FACE('',(#294),#54,.F.);
#329=ADVANCED_FACE('',(#295,#296),#55,.F.);
#330=ADVANCED_FACE('',(#297,#298),#61,.F.);
#331=ADVANCED_FACE('',(#299,#300),#308,.T.);
#332=ADVANCED_FACE('',(#301,#302),#309,.T.);
#333=ADVANCED_FACE('',(#303),#56,.T.);
#334=CLOSED_SHELL('',(#310,#311,#312,#313,#314,#315,#316,#317,#318,#319,
#320,#321,#322,#323,#324,#325,#326,#327,#328,#329,#330,#331,#332,#333));
#335=STYLED_ITEM('',(#336),#345);
#336=PRESENTATION_STYLE_ASSIGNMENT((#337));
#337=SURFACE_STYLE_USAGE(.BOTH.,#338);
#338=SURFACE_SIDE_STYLE('',(#341,#339));
#339=SURFACE_STYLE_RENDERING_WITH_PROPERTIES(.CONSTANT_SHADING.,#344,(#340));
#340=SURFACE_STYLE_TRANSPARENT(0.699999988079071);
#341=SURFACE_STYLE_FILL_AREA(#342);
#342=FILL_AREA_STYLE('',(#343));
#343=FILL_AREA_STYLE_COLOUR('',#344);
#344=DRAUGHTING_PRE_DEFINED_COLOUR('white');
#345=MANIFOLD_SOLID_BREP('',#334);
#346=SHAPE_DEFINITION_REPRESENTATION(#640,#347);
#347=SHAPE_REPRESENTATION('5-24H-LS-PY_Mischrohr',(#348),#635);
#348=AXIS2_PLACEMENT_3D('',#493,#391,#392);
#349=AXIS2_PLACEMENT_3D('',#494,#393,#394);
#350=AXIS2_PLACEMENT_3D('',#495,#395,#396);
#351=AXIS2_PLACEMENT_3D('',#497,#397,#398);
#352=AXIS2_PLACEMENT_3D('',#514,#399,#400);
#353=AXIS2_PLACEMENT_3D('',#530,#401,#402);
#354=AXIS2_PLACEMENT_3D('',#546,#403,#404);
#355=AXIS2_PLACEMENT_3D('',#561,#405,#406);
#356=AXIS2_PLACEMENT_3D('',#562,#407,#408);
#357=AXIS2_PLACEMENT_3D('',#564,#409,#410);
#358=AXIS2_PLACEMENT_3D('',#566,#411,#412);
#359=AXIS2_PLACEMENT_3D('',#567,#413,#414);
#360=AXIS2_PLACEMENT_3D('',#569,#415,#416);
#361=AXIS2_PLACEMENT_3D('',#571,#417,#418);
#362=AXIS2_PLACEMENT_3D('',#572,#419,#420);
#363=AXIS2_PLACEMENT_3D('',#573,#421,#422);
#364=AXIS2_PLACEMENT_3D('',#575,#423,#424);
#365=AXIS2_PLACEMENT_3D('',#576,#425,#426);
#366=AXIS2_PLACEMENT_3D('',#578,#427,#428);
#367=AXIS2_PLACEMENT_3D('',#579,#429,#430);
#368=AXIS2_PLACEMENT_3D('',#581,#431,#432);
#369=AXIS2_PLACEMENT_3D('',#582,#433,#434);
#370=AXIS2_PLACEMENT_3D('',#584,#435,#436);
#371=AXIS2_PLACEMENT_3D('',#585,#437,#438);
#372=AXIS2_PLACEMENT_3D('',#586,#439,#440);
#373=AXIS2_PLACEMENT_3D('',#596,#446,#447);
#374=AXIS2_PLACEMENT_3D('',#603,#452,#453);
#375=AXIS2_PLACEMENT_3D('',#610,#458,#459);
#376=AXIS2_PLACEMENT_3D('',#614,#463,#464);
#377=AXIS2_PLACEMENT_3D('',#615,#465,#466);
#378=AXIS2_PLACEMENT_3D('',#617,#467,#468);
#379=AXIS2_PLACEMENT_3D('',#618,#469,#470);
#380=AXIS2_PLACEMENT_3D('',#619,#471,#472);
#381=AXIS2_PLACEMENT_3D('',#620,#473,#474);
#382=AXIS2_PLACEMENT_3D('',#621,#475,#476);
#383=AXIS2_PLACEMENT_3D('',#622,#477,#478);
#384=AXIS2_PLACEMENT_3D('',#624,#479,#480);
#385=AXIS2_PLACEMENT_3D('',#626,#481,#482);
#386=AXIS2_PLACEMENT_3D('',#627,#483,#484);
#387=AXIS2_PLACEMENT_3D('',#629,#485,#486);
#388=AXIS2_PLACEMENT_3D('',#630,#487,#488);
#389=AXIS2_PLACEMENT_3D('',#632,#489,#490);
#390=AXIS2_PLACEMENT_3D('',#633,#491,#492);
#391=DIRECTION('',(0.,0.,1.));
#392=DIRECTION('',(1.,0.,0.));
#393=DIRECTION('',(0.,0.,1.));
#394=DIRECTION('',(1.,0.,0.));
#395=DIRECTION('',(0.,0.,-1.));
#396=DIRECTION('',(-1.,0.,0.));
#397=DIRECTION('',(0.,0.,-1.));
#398=DIRECTION('',(-1.,0.,0.));
#399=DIRECTION('',(0.,0.,-1.));
#400=DIRECTION('',(-1.,0.,0.));
#401=DIRECTION('',(0.,0.,-1.));
#402=DIRECTION('',(-1.,0.,0.));
#403=DIRECTION('',(0.,0.,-1.));
#404=DIRECTION('',(-1.,0.,0.));
#405=DIRECTION('',(0.,0.,1.));
#406=DIRECTION('',(1.,0.,0.));
#407=DIRECTION('',(0.,0.,-1.));
#408=DIRECTION('',(-1.,0.,0.));
#409=DIRECTION('',(0.,0.,-1.));
#410=DIRECTION('',(-1.,0.,0.));
#411=DIRECTION('',(0.,0.,1.));
#412=DIRECTION('',(1.,0.,0.));
#413=DIRECTION('',(0.,0.,-1.));
#414=DIRECTION('',(-1.,0.,0.));
#415=DIRECTION('',(0.,0.,-1.));
#416=DIRECTION('',(-1.,0.,0.));
#417=DIRECTION('',(0.,0.,-1.));
#418=DIRECTION('',(-1.,0.,0.));
#419=DIRECTION('',(0.,0.,-1.));
#420=DIRECTION('',(-1.,0.,0.));
#421=DIRECTION('',(0.,0.,-1.));
#422=DIRECTION('',(-1.,0.,0.));
#423=DIRECTION('',(0.,0.,1.));
#424=DIRECTION('',(1.,0.,0.));
#425=DIRECTION('',(0.,0.,-1.));
#426=DIRECTION('',(-1.,0.,0.));
#427=DIRECTION('',(0.,0.,-1.));
#428=DIRECTION('',(-1.,0.,0.));
#429=DIRECTION('',(0.,0.,-1.));
#430=DIRECTION('',(-1.,0.,0.));
#431=DIRECTION('',(0.,0.,-1.));
#432=DIRECTION('',(-1.,0.,0.));
#433=DIRECTION('',(0.,0.,-1.));
#434=DIRECTION('',(-1.,0.,0.));
#435=DIRECTION('',(0.,0.,-1.));
#436=DIRECTION('',(-1.,0.,0.));
#437=DIRECTION('',(0.,0.,-1.));
#438=DIRECTION('',(-1.,0.,0.));
#439=DIRECTION('',(1.,0.,0.));
#440=DIRECTION('',(0.,0.,-1.));
#441=DIRECTION('',(0.,-1.,0.));
#442=DIRECTION('',(0.,0.,-1.));
#443=DIRECTION('',(0.,-1.,0.));
#444=DIRECTION('',(0.,0.,-1.));
#445=DIRECTION('',(0.,-1.,0.));
#446=DIRECTION('',(0.,-1.,0.));
#447=DIRECTION('',(0.,0.,-1.));
#448=DIRECTION('',(-1.,0.,0.));
#449=DIRECTION('',(0.,0.,-1.));
#450=DIRECTION('',(-1.,0.,0.));
#451=DIRECTION('',(-1.,0.,0.));
#452=DIRECTION('',(-1.,0.,0.));
#453=DIRECTION('',(0.,0.,1.));
#454=DIRECTION('',(0.,1.,0.));
#455=DIRECTION('',(0.,0.,-1.));
#456=DIRECTION('',(0.,1.,0.));
#457=DIRECTION('',(0.,1.,0.));
#458=DIRECTION('',(0.,1.,0.));
#459=DIRECTION('',(0.,0.,1.));
#460=DIRECTION('',(1.,0.,0.));
#461=DIRECTION('',(1.,0.,0.));
#462=DIRECTION('',(1.,0.,0.));
#463=DIRECTION('',(0.,0.,-1.));
#464=DIRECTION('',(-1.,0.,0.));
#465=DIRECTION('',(0.,0.,-1.));
#466=DIRECTION('',(-1.,0.,0.));
#467=DIRECTION('',(0.,0.,-1.));
#468=DIRECTION('',(-1.,0.,0.));
#469=DIRECTION('',(0.,0.,-1.));
#470=DIRECTION('',(-1.,0.,0.));
#471=DIRECTION('',(0.,0.,-1.));
#472=DIRECTION('',(-1.,0.,0.));
#473=DIRECTION('',(0.,0.,-1.));
#474=DIRECTION('',(-1.,0.,0.));
#475=DIRECTION('',(0.,0.,1.));
#476=DIRECTION('',(1.,0.,0.));
#477=DIRECTION('',(0.,0.,1.));
#478=DIRECTION('',(1.,0.,0.));
#479=DIRECTION('',(0.,0.,-1.));
#480=DIRECTION('',(-1.,0.,0.));
#481=DIRECTION('',(0.,0.,-1.));
#482=DIRECTION('',(-1.,0.,0.));
#483=DIRECTION('',(0.,0.,-1.));
#484=DIRECTION('',(-1.,0.,0.));
#485=DIRECTION('',(0.,0.,1.));
#486=DIRECTION('',(1.,0.,0.));
#487=DIRECTION('',(0.,0.,-1.));
#488=DIRECTION('',(-1.,0.,0.));
#489=DIRECTION('',(0.,0.,1.));
#490=DIRECTION('',(1.,0.,0.));
#491=DIRECTION('',(0.,0.,-1.));
#492=DIRECTION('',(-1.,0.,0.));
#493=CARTESIAN_POINT('',(0.,0.,0.));
#494=CARTESIAN_POINT('',(2.29850860566927E-14,0.,-112.));
#495=CARTESIAN_POINT('',(2.29850860566927E-14,0.,-112.));
#496=CARTESIAN_POINT('',(-3.74999999999996,0.,-112.));
#497=CARTESIAN_POINT('',(2.29850860566927E-14,0.,-120.));
#498=CARTESIAN_POINT('',(1.11247471881389,2.25,-120.));
#499=CARTESIAN_POINT('',(2.25,1.11247471881391,-120.));
#500=CARTESIAN_POINT('',(1.11247471881389,2.25,-120.));
#501=CARTESIAN_POINT('',(1.05485893174979,2.25,-120.164750305908));
#502=CARTESIAN_POINT('',(0.933045415833635,2.25,-120.493033832671));
#503=CARTESIAN_POINT('',(0.720264842757609,2.25,-120.974013422874));
#504=CARTESIAN_POINT('',(0.495923718197016,2.25,-121.355624689022));
#505=CARTESIAN_POINT('',(0.253101297168519,2.25,-121.609415616993));
#506=CARTESIAN_POINT('',(-0.00744062514747261,2.25,-121.713573772644));
#507=CARTESIAN_POINT('',(-0.264057581043782,2.25,-121.600409240903));
#508=CARTESIAN_POINT('',(-0.504303435386967,2.25,-121.343420714183));
#509=CARTESIAN_POINT('',(-0.724942703171285,2.25,-120.963913516821));
#510=CARTESIAN_POINT('',(-0.934814134042156,2.25,-120.488345424328));
#511=CARTESIAN_POINT('',(-1.05527912290213,2.25,-120.163548784165));
#512=CARTESIAN_POINT('',(-1.11247471881384,2.25,-120.));
#513=CARTESIAN_POINT('',(-1.11247471881384,2.25,-120.));
#514=CARTESIAN_POINT('',(2.29850860566927E-14,0.,-120.));
#515=CARTESIAN_POINT('',(-2.24999999999999,1.11247471881383,-120.));
#516=CARTESIAN_POINT('',(-2.24999999999999,1.11247471881383,-120.));
#517=CARTESIAN_POINT('',(-2.24999999999999,1.05485893174974,-120.164750305908));
#518=CARTESIAN_POINT('',(-2.24999999999999,0.933045415833584,-120.493033832671));
#519=CARTESIAN_POINT('',(-2.24999999999999,0.720264842757565,-120.974013422874));
#520=CARTESIAN_POINT('',(-2.24999999999999,0.495923718196971,-121.355624689022));
#521=CARTESIAN_POINT('',(-2.24999999999999,0.253101297168478,-121.609415616993));
#522=CARTESIAN_POINT('',(-2.24999999999999,-0.00744062514749652,-121.713573772644));
#523=CARTESIAN_POINT('',(-2.24999999999999,-0.264057581043805,-121.600409240902));
#524=CARTESIAN_POINT('',(-2.24999999999999,-0.50430343538697,-121.343420714183));
#525=CARTESIAN_POINT('',(-2.24999999999999,-0.724942703171282,-120.963913516821));
#526=CARTESIAN_POINT('',(-2.24999999999999,-0.934814134042161,-120.488345424328));
#527=CARTESIAN_POINT('',(-2.24999999999999,-1.05527912290212,-120.163548784165));
#528=CARTESIAN_POINT('',(-2.24999999999999,-1.11247471881383,-120.));
#529=CARTESIAN_POINT('',(-2.24999999999999,-1.11247471881383,-120.));
#530=CARTESIAN_POINT('',(2.29850860566927E-14,0.,-120.));
#531=CARTESIAN_POINT('',(-1.11247471881384,-2.25,-120.));
#532=CARTESIAN_POINT('',(-1.11247471881384,-2.25,-120.));
#533=CARTESIAN_POINT('',(-1.05485893174975,-2.25,-120.164750305908));
#534=CARTESIAN_POINT('',(-0.933045415833589,-2.25,-120.493033832671));
#535=CARTESIAN_POINT('',(-0.720264842757563,-2.25,-120.974013422874));
#536=CARTESIAN_POINT('',(-0.49592371819697,-2.25,-121.355624689022));
#537=CARTESIAN_POINT('',(-0.253101297168473,-2.25,-121.609415616993));
#538=CARTESIAN_POINT('',(0.0074406251475186,-2.25,-121.713573772644));
#539=CARTESIAN_POINT('',(0.264057581043828,-2.25,-121.600409240903));
#540=CARTESIAN_POINT('',(0.504303435387013,-2.25,-121.343420714183));
#541=CARTESIAN_POINT('',(0.724942703171331,-2.25,-120.963913516821));
#542=CARTESIAN_POINT('',(0.934814134042202,-2.25,-120.488345424328));
#543=CARTESIAN_POINT('',(1.05527912290217,-2.25,-120.163548784165));
#544=CARTESIAN_POINT('',(1.11247471881389,-2.25,-120.));
#545=CARTESIAN_POINT('',(1.11247471881389,-2.25,-120.));
#546=CARTESIAN_POINT('',(2.29850860566927E-14,0.,-120.));
#547=CARTESIAN_POINT('',(2.25,-1.11247471881391,-120.));
#548=CARTESIAN_POINT('',(2.25,-1.11247471881392,-120.));
#549=CARTESIAN_POINT('',(2.25,-1.05485893174982,-120.164750305908));
#550=CARTESIAN_POINT('',(2.25,-0.933045415833649,-120.493033832671));
#551=CARTESIAN_POINT('',(2.25,-0.720264842757628,-120.974013422874));
#552=CARTESIAN_POINT('',(2.25,-0.495923718197023,-121.355624689022));
#553=CARTESIAN_POINT('',(2.25,-0.25310129716852,-121.609415616993));
#554=CARTESIAN_POINT('',(2.25,0.00744062514749273,-121.713573772645));
#555=CARTESIAN_POINT('',(2.25,0.26405758104382,-121.600409240903));
#556=CARTESIAN_POINT('',(2.25,0.504303435387028,-121.343420714183));
#557=CARTESIAN_POINT('',(2.25,0.72494270317134,-120.963913516821));
#558=CARTESIAN_POINT('',(2.25,0.934814134042225,-120.488345424328));
#559=CARTESIAN_POINT('',(2.25,1.0552791229022,-120.163548784165));
#560=CARTESIAN_POINT('',(2.25,1.11247471881392,-120.));
#561=CARTESIAN_POINT('',(2.29850860566927E-14,0.,-120.601821384801));
#562=CARTESIAN_POINT('',(2.29850860566927E-14,0.,-111.892143965446));
#563=CARTESIAN_POINT('',(-2.34999999999996,0.,-111.892143965446));
#564=CARTESIAN_POINT('',(2.29850860566927E-14,0.,-120.));
#565=CARTESIAN_POINT('',(-1.09328231464414,0.,-120.));
#566=CARTESIAN_POINT('',(2.29850860566927E-14,0.,-6.5));
#567=CARTESIAN_POINT('',(2.29850860566927E-14,0.,-15.));
#568=CARTESIAN_POINT('',(-3.74999999999997,0.,-15.));
#569=CARTESIAN_POINT('',(2.29850860566927E-14,0.,-6.5));
#570=CARTESIAN_POINT('',(-9.75,0.,-6.5));
#571=CARTESIAN_POINT('',(2.29850860566927E-14,0.,0.));
#572=CARTESIAN_POINT('',(2.29850860566927E-14,0.,0.));
#573=CARTESIAN_POINT('',(2.29850860566927E-14,0.,-14.5556572612201));
#574=CARTESIAN_POINT('',(-2.34999999999998,0.,-14.5556572612201));
#575=CARTESIAN_POINT('',(2.29850860566927E-14,0.,-14.5556572612201));
#576=CARTESIAN_POINT('',(2.29850860566927E-14,0.,-6.0556572612201));
#577=CARTESIAN_POINT('',(-8.35,0.,-6.0556572612201));
#578=CARTESIAN_POINT('',(2.29850860566927E-14,0.,0.));
#579=CARTESIAN_POINT('',(2.29850860566927E-14,0.,6.91383364356396E-16));
#580=CARTESIAN_POINT('',(-8.35,0.,6.91383364356396E-16));
#581=CARTESIAN_POINT('',(-8.35,0.,6.05658088416082E-16));
#582=CARTESIAN_POINT('',(2.29850860566927E-14,0.,5.19932812475767E-16));
#583=CARTESIAN_POINT('',(-9.75,0.,5.19932812475767E-16));
#584=CARTESIAN_POINT('',(2.29850860566927E-14,0.,0.));
#585=CARTESIAN_POINT('',(0.,0.,-120.));
#586=CARTESIAN_POINT('',(2.25,2.25,-120.));
#587=CARTESIAN_POINT('',(2.25,2.25,-120.));
#588=CARTESIAN_POINT('',(2.25,-2.25,-120.));
#589=CARTESIAN_POINT('',(2.25,-2.25,-120.));
#590=CARTESIAN_POINT('',(2.25,-2.25,-122.));
#591=CARTESIAN_POINT('',(2.25,2.25,-122.));
#592=CARTESIAN_POINT('',(2.25,2.25,-122.));
#593=CARTESIAN_POINT('',(2.25,2.25,-120.));
#594=CARTESIAN_POINT('',(2.25,2.25,-120.));
#595=CARTESIAN_POINT('',(2.25,2.25,-120.));
#596=CARTESIAN_POINT('',(2.25,-2.25,-120.));
#597=CARTESIAN_POINT('',(2.25,-2.25,-120.));
#598=CARTESIAN_POINT('',(-2.24999999999999,-2.25,-120.));
#599=CARTESIAN_POINT('',(-2.24999999999999,-2.25,-120.));
#600=CARTESIAN_POINT('',(-2.24999999999999,-2.25,-122.));
#601=CARTESIAN_POINT('',(2.25,-2.25,-122.));
#602=CARTESIAN_POINT('',(2.25,-2.25,-120.));
#603=CARTESIAN_POINT('',(-2.24999999999999,-2.25,-120.));
#604=CARTESIAN_POINT('',(-2.24999999999999,-2.25,-120.));
#605=CARTESIAN_POINT('',(-2.24999999999999,2.25,-120.));
#606=CARTESIAN_POINT('',(-2.24999999999999,2.25,-120.));
#607=CARTESIAN_POINT('',(-2.24999999999999,2.25,-122.));
#608=CARTESIAN_POINT('',(-2.24999999999999,-2.25,-122.));
#609=CARTESIAN_POINT('',(-2.24999999999999,-2.25,-120.));
#610=CARTESIAN_POINT('',(-2.24999999999999,2.25,-120.));
#611=CARTESIAN_POINT('',(-2.24999999999999,2.25,-120.));
#612=CARTESIAN_POINT('',(-2.24999999999999,2.25,-122.));
#613=CARTESIAN_POINT('',(-2.24999999999999,2.25,-120.));
#614=CARTESIAN_POINT('',(0.,0.,-122.));
#615=CARTESIAN_POINT('',(2.29850860566927E-14,0.,-122.));
#616=CARTESIAN_POINT('',(-2.19999999999998,0.,-122.));
#617=CARTESIAN_POINT('',(0.,0.,-120.));
#618=CARTESIAN_POINT('',(0.,0.,-120.));
#619=CARTESIAN_POINT('',(0.,0.,-120.));
#620=CARTESIAN_POINT('',(0.,0.,-120.));
#621=CARTESIAN_POINT('',(-0.999999999999975,0.,-131.));
#622=CARTESIAN_POINT('',(2.29850860566927E-14,0.,-131.));
#623=CARTESIAN_POINT('',(1.50000000000002,0.,-131.));
#624=CARTESIAN_POINT('',(2.29850860566927E-14,0.,-131.));
#625=CARTESIAN_POINT('',(-0.999999999999975,0.,-131.));
#626=CARTESIAN_POINT('',(2.29850860566927E-14,0.,0.));
#627=CARTESIAN_POINT('',(2.29850860566927E-14,0.,-122.));
#628=CARTESIAN_POINT('',(-0.999999999999976,0.,-122.));
#629=CARTESIAN_POINT('',(2.29850860566927E-14,0.,-131.));
#630=CARTESIAN_POINT('',(2.29850860566927E-14,0.,-130.500123411084));
#631=CARTESIAN_POINT('',(-2.01110836864255,0.,-130.500123411084));
#632=CARTESIAN_POINT('',(2.29850860566927E-14,0.,-122.));
#633=CARTESIAN_POINT('',(0.,0.,-122.));
#634=MECHANICAL_DESIGN_GEOMETRIC_PRESENTATION_REPRESENTATION('',(#335),
#635);
#635=(
GEOMETRIC_REPRESENTATION_CONTEXT(3)
GLOBAL_UNCERTAINTY_ASSIGNED_CONTEXT((#636))
GLOBAL_UNIT_ASSIGNED_CONTEXT((#639,#638,#637))
REPRESENTATION_CONTEXT('5-24H-LS-PY_Mischrohr',
'TOP_LEVEL_ASSEMBLY_PART')
);
#636=UNCERTAINTY_MEASURE_WITH_UNIT(LENGTH_MEASURE(0.005),#639,
'DISTANCE_ACCURACY_VALUE','Maximum Tolerance applied to model');
#637=(
NAMED_UNIT(*)
SI_UNIT($,.STERADIAN.)
SOLID_ANGLE_UNIT()
);
#638=(
NAMED_UNIT(*)
PLANE_ANGLE_UNIT()
SI_UNIT($,.RADIAN.)
);
#639=(
LENGTH_UNIT()
NAMED_UNIT(*)
SI_UNIT(.MILLI.,.METRE.)
);
#640=PRODUCT_DEFINITION_SHAPE('','',#641);
#641=PRODUCT_DEFINITION('','',#643,#642);
#642=PRODUCT_DEFINITION_CONTEXT('',#649,'design');
#643=PRODUCT_DEFINITION_FORMATION_WITH_SPECIFIED_SOURCE('','',#645,
 .NOT_KNOWN.);
#644=PRODUCT_RELATED_PRODUCT_CATEGORY('','',(#645));
#645=PRODUCT('5-24H-LS-PY_Mischrohr','5-24H-LS-PY_Mischrohr',
'5-24H-LS-PY_Mischrohr',(#647));
#646=PRODUCT_CATEGORY('','');
#647=PRODUCT_CONTEXT('',#649,'mechanical');
#648=APPLICATION_PROTOCOL_DEFINITION('international standard',
'ap242_managed_model_based_3d_engineering',2011,#649);
#649=APPLICATION_CONTEXT('managed model based 3d engineering');
ENDSEC;
END-ISO-10303-21;
