ISO-10303-21;
HEADER;
/* Generated by software containing ST-Developer
 * from STEP Tools, Inc. (www.steptools.com) 
 */
/* OPTION: strings as raw bytes, not using required /X/ escapes */

FILE_DESCRIPTION(
/* description */ ('Unknown',
'CAx-IF Rec.Pracs.---Representation and Presentation of Product Manufa
cturing Information (PMI)---4.0---2014-10-13',
'CAx-IF Rec.Pracs.---3D Tessellated Geometry---0.4---2014-09-14','2;1'),

/* implementation_level */ '2;1');

FILE_NAME(
/* name */ '501581_Dosiernadel_Vollmetall',
/* time_stamp */ '2024-05-23T10:55:34+02:00',
/* author */ ('Unknown'),
/* organization */ ('Unknown'),
/* preprocessor_version */ 'ST-DEVELOPER v19.4',
/* originating_system */ 'Solid Edge',
/* authorisation */ 'Unknown');

FILE_SCHEMA (('AP242_MANAGED_MODEL_BASED_3D_ENGINEERING_MIM_LF { 1 0 10303 442 1 1 4 }'));
ENDSEC;

DATA;
#10=CONSTRUCTIVE_GEOMETRY_REPRESENTATION_RELATIONSHIP(
'supplemental geometry','',#371,#11);
#11=CONSTRUCTIVE_GEOMETRY_REPRESENTATION('supplemental geometry',(#414),
#649);
#12=SHAPE_REPRESENTATION_RELATIONSHIP('','',#371,#13);
#13=ADVANCED_BREP_SHAPE_REPRESENTATION('',(#369),#649);
#14=B_SPLINE_CURVE_WITH_KNOTS('',3,(#560,#561,#562,#563,#564),
 .UNSPECIFIED.,.F.,.F.,(4,1,4),(0.00304755935252831,0.00607784115773825,
0.0091081229629482),.UNSPECIFIED.);
#15=B_SPLINE_CURVE_WITH_KNOTS('',3,(#567,#568,#569,#570,#571),
 .UNSPECIFIED.,.F.,.F.,(4,1,4),(0.00304755935252801,0.00607784115773796,
0.00910812296294791),.UNSPECIFIED.);
#16=B_SPLINE_CURVE_WITH_KNOTS('',3,(#573,#574,#575,#576,#577),
 .UNSPECIFIED.,.F.,.F.,(4,1,4),(0.003047559352528,0.00607784115773795,0.0091081229629479),
 .UNSPECIFIED.);
#17=B_SPLINE_CURVE_WITH_KNOTS('',3,(#579,#580,#581,#582,#583),
 .UNSPECIFIED.,.F.,.F.,(4,1,4),(0.003047559352528,0.00607784115773794,0.00910812296294789),
 .UNSPECIFIED.);
#18=B_SPLINE_CURVE_WITH_KNOTS('',3,(#589,#590,#591,#592,#593),
 .UNSPECIFIED.,.F.,.F.,(4,1,4),(0.003047559352528,0.00607784115773795,0.00910812296294789),
 .UNSPECIFIED.);
#19=B_SPLINE_CURVE_WITH_KNOTS('',3,(#597,#598,#599,#600,#601),
 .UNSPECIFIED.,.F.,.F.,(4,1,4),(0.00304755935252801,0.00607784115773796,
0.00910812296294791),.UNSPECIFIED.);
#20=B_SPLINE_CURVE_WITH_KNOTS('',3,(#605,#606,#607,#608,#609),
 .UNSPECIFIED.,.F.,.F.,(4,1,4),(0.00304755935252831,0.00607784115773825,
0.0091081229629482),.UNSPECIFIED.);
#21=B_SPLINE_CURVE_WITH_KNOTS('',3,(#611,#612,#613,#614,#615),
 .UNSPECIFIED.,.F.,.F.,(4,1,4),(0.003047559352528,0.00607784115773795,0.00910812296294789),
 .UNSPECIFIED.);
#22=CONICAL_SURFACE('',#388,2.75,1.30899693899575);
#23=CONICAL_SURFACE('',#393,4.42942286340599,1.30899693899575);
#24=CONICAL_SURFACE('',#401,1.95481355338547,0.0300196631343026);
#25=LINE('',#524,#41);
#26=LINE('',#527,#42);
#27=LINE('',#529,#43);
#28=LINE('',#531,#44);
#29=LINE('',#533,#45);
#30=LINE('',#535,#46);
#31=LINE('',#537,#47);
#32=LINE('',#539,#48);
#33=LINE('',#541,#49);
#34=LINE('',#543,#50);
#35=LINE('',#545,#51);
#36=LINE('',#546,#52);
#37=LINE('',#585,#53);
#38=LINE('',#587,#54);
#39=LINE('',#595,#55);
#40=LINE('',#603,#56);
#41=VECTOR('',#425,1000.);
#42=VECTOR('',#426,1000.);
#43=VECTOR('',#427,1000.);
#44=VECTOR('',#428,1000.);
#45=VECTOR('',#431,1000.);
#46=VECTOR('',#432,1000.);
#47=VECTOR('',#433,1000.);
#48=VECTOR('',#436,1000.);
#49=VECTOR('',#437,1000.);
#50=VECTOR('',#438,1000.);
#51=VECTOR('',#441,1000.);
#52=VECTOR('',#442,1000.);
#53=VECTOR('',#463,1000.);
#54=VECTOR('',#464,1000.);
#55=VECTOR('',#467,1000.);
#56=VECTOR('',#470,1000.);
#57=PLANE('',#376);
#58=PLANE('',#377);
#59=PLANE('',#378);
#60=PLANE('',#379);
#61=PLANE('',#380);
#62=PLANE('',#382);
#63=PLANE('',#385);
#64=PLANE('',#389);
#65=PLANE('',#390);
#66=PLANE('',#391);
#67=PLANE('',#392);
#68=PLANE('',#395);
#69=PLANE('',#403);
#70=PLANE('',#404);
#71=PLANE('',#408);
#72=ORIENTED_EDGE('',*,*,#152,.F.);
#73=ORIENTED_EDGE('',*,*,#153,.F.);
#74=ORIENTED_EDGE('',*,*,#154,.T.);
#75=ORIENTED_EDGE('',*,*,#155,.F.);
#76=ORIENTED_EDGE('',*,*,#156,.F.);
#77=ORIENTED_EDGE('',*,*,#157,.T.);
#78=ORIENTED_EDGE('',*,*,#158,.T.);
#79=ORIENTED_EDGE('',*,*,#159,.F.);
#80=ORIENTED_EDGE('',*,*,#160,.F.);
#81=ORIENTED_EDGE('',*,*,#155,.T.);
#82=ORIENTED_EDGE('',*,*,#161,.T.);
#83=ORIENTED_EDGE('',*,*,#162,.F.);
#84=ORIENTED_EDGE('',*,*,#163,.F.);
#85=ORIENTED_EDGE('',*,*,#159,.T.);
#86=ORIENTED_EDGE('',*,*,#164,.T.);
#87=ORIENTED_EDGE('',*,*,#157,.F.);
#88=ORIENTED_EDGE('',*,*,#165,.F.);
#89=ORIENTED_EDGE('',*,*,#162,.T.);
#90=ORIENTED_EDGE('',*,*,#166,.T.);
#91=ORIENTED_EDGE('',*,*,#156,.T.);
#92=ORIENTED_EDGE('',*,*,#160,.T.);
#93=ORIENTED_EDGE('',*,*,#163,.T.);
#94=ORIENTED_EDGE('',*,*,#165,.T.);
#95=ORIENTED_EDGE('',*,*,#152,.T.);
#96=ORIENTED_EDGE('',*,*,#154,.F.);
#97=ORIENTED_EDGE('',*,*,#164,.F.);
#98=ORIENTED_EDGE('',*,*,#161,.F.);
#99=ORIENTED_EDGE('',*,*,#158,.F.);
#100=ORIENTED_EDGE('',*,*,#167,.T.);
#101=ORIENTED_EDGE('',*,*,#166,.F.);
#102=ORIENTED_EDGE('',*,*,#168,.T.);
#103=ORIENTED_EDGE('',*,*,#169,.T.);
#104=ORIENTED_EDGE('',*,*,#167,.F.);
#105=ORIENTED_EDGE('',*,*,#170,.F.);
#106=ORIENTED_EDGE('',*,*,#171,.F.);
#107=ORIENTED_EDGE('',*,*,#172,.F.);
#108=ORIENTED_EDGE('',*,*,#173,.F.);
#109=ORIENTED_EDGE('',*,*,#153,.T.);
#110=ORIENTED_EDGE('',*,*,#174,.F.);
#111=ORIENTED_EDGE('',*,*,#172,.T.);
#112=ORIENTED_EDGE('',*,*,#175,.T.);
#113=ORIENTED_EDGE('',*,*,#176,.T.);
#114=ORIENTED_EDGE('',*,*,#175,.F.);
#115=ORIENTED_EDGE('',*,*,#171,.T.);
#116=ORIENTED_EDGE('',*,*,#177,.T.);
#117=ORIENTED_EDGE('',*,*,#178,.T.);
#118=ORIENTED_EDGE('',*,*,#177,.F.);
#119=ORIENTED_EDGE('',*,*,#170,.T.);
#120=ORIENTED_EDGE('',*,*,#179,.T.);
#121=ORIENTED_EDGE('',*,*,#180,.T.);
#122=ORIENTED_EDGE('',*,*,#179,.F.);
#123=ORIENTED_EDGE('',*,*,#173,.T.);
#124=ORIENTED_EDGE('',*,*,#174,.T.);
#125=ORIENTED_EDGE('',*,*,#181,.T.);
#126=ORIENTED_EDGE('',*,*,#182,.F.);
#127=ORIENTED_EDGE('',*,*,#176,.F.);
#128=ORIENTED_EDGE('',*,*,#178,.F.);
#129=ORIENTED_EDGE('',*,*,#180,.F.);
#130=ORIENTED_EDGE('',*,*,#181,.F.);
#131=ORIENTED_EDGE('',*,*,#183,.F.);
#132=ORIENTED_EDGE('',*,*,#184,.F.);
#133=ORIENTED_EDGE('',*,*,#185,.T.);
#134=ORIENTED_EDGE('',*,*,#186,.T.);
#135=ORIENTED_EDGE('',*,*,#185,.F.);
#136=ORIENTED_EDGE('',*,*,#187,.T.);
#137=ORIENTED_EDGE('',*,*,#186,.F.);
#138=ORIENTED_EDGE('',*,*,#182,.T.);
#139=ORIENTED_EDGE('',*,*,#187,.F.);
#140=ORIENTED_EDGE('',*,*,#188,.F.);
#141=ORIENTED_EDGE('',*,*,#189,.F.);
#142=ORIENTED_EDGE('',*,*,#189,.T.);
#143=ORIENTED_EDGE('',*,*,#169,.F.);
#144=ORIENTED_EDGE('',*,*,#190,.F.);
#145=ORIENTED_EDGE('',*,*,#191,.F.);
#146=ORIENTED_EDGE('',*,*,#191,.T.);
#147=ORIENTED_EDGE('',*,*,#168,.F.);
#148=ORIENTED_EDGE('',*,*,#188,.T.);
#149=ORIENTED_EDGE('',*,*,#184,.T.);
#150=ORIENTED_EDGE('',*,*,#190,.T.);
#151=ORIENTED_EDGE('',*,*,#183,.T.);
#152=EDGE_CURVE('',#192,#192,#224,.F.);
#153=EDGE_CURVE('',#193,#193,#225,.T.);
#154=EDGE_CURVE('',#194,#195,#25,.T.);
#155=EDGE_CURVE('',#196,#195,#26,.T.);
#156=EDGE_CURVE('',#197,#196,#27,.T.);
#157=EDGE_CURVE('',#197,#194,#28,.T.);
#158=EDGE_CURVE('',#195,#198,#29,.T.);
#159=EDGE_CURVE('',#199,#198,#30,.T.);
#160=EDGE_CURVE('',#196,#199,#31,.T.);
#161=EDGE_CURVE('',#198,#200,#32,.T.);
#162=EDGE_CURVE('',#201,#200,#33,.T.);
#163=EDGE_CURVE('',#199,#201,#34,.T.);
#164=EDGE_CURVE('',#200,#194,#35,.T.);
#165=EDGE_CURVE('',#201,#197,#36,.T.);
#166=EDGE_CURVE('',#202,#202,#226,.T.);
#167=EDGE_CURVE('',#203,#203,#227,.T.);
#168=EDGE_CURVE('',#204,#204,#228,.T.);
#169=EDGE_CURVE('',#205,#205,#229,.T.);
#170=EDGE_CURVE('',#206,#207,#14,.F.);
#171=EDGE_CURVE('',#208,#206,#15,.F.);
#172=EDGE_CURVE('',#209,#208,#16,.T.);
#173=EDGE_CURVE('',#207,#209,#17,.T.);
#174=EDGE_CURVE('',#209,#210,#37,.T.);
#175=EDGE_CURVE('',#208,#211,#38,.T.);
#176=EDGE_CURVE('',#211,#210,#18,.F.);
#177=EDGE_CURVE('',#206,#212,#39,.T.);
#178=EDGE_CURVE('',#212,#211,#19,.T.);
#179=EDGE_CURVE('',#207,#213,#40,.T.);
#180=EDGE_CURVE('',#213,#212,#20,.T.);
#181=EDGE_CURVE('',#210,#213,#21,.F.);
#182=EDGE_CURVE('',#214,#214,#230,.T.);
#183=EDGE_CURVE('',#215,#215,#231,.T.);
#184=EDGE_CURVE('',#216,#216,#232,.T.);
#185=EDGE_CURVE('',#217,#217,#233,.T.);
#186=EDGE_CURVE('',#218,#218,#234,.T.);
#187=EDGE_CURVE('',#219,#219,#235,.T.);
#188=EDGE_CURVE('',#220,#220,#236,.T.);
#189=EDGE_CURVE('',#221,#221,#237,.T.);
#190=EDGE_CURVE('',#222,#222,#238,.T.);
#191=EDGE_CURVE('',#223,#223,#239,.T.);
#192=VERTEX_POINT('',#520);
#193=VERTEX_POINT('',#522);
#194=VERTEX_POINT('',#525);
#195=VERTEX_POINT('',#526);
#196=VERTEX_POINT('',#528);
#197=VERTEX_POINT('',#530);
#198=VERTEX_POINT('',#534);
#199=VERTEX_POINT('',#536);
#200=VERTEX_POINT('',#540);
#201=VERTEX_POINT('',#542);
#202=VERTEX_POINT('',#549);
#203=VERTEX_POINT('',#553);
#204=VERTEX_POINT('',#556);
#205=VERTEX_POINT('',#558);
#206=VERTEX_POINT('',#565);
#207=VERTEX_POINT('',#566);
#208=VERTEX_POINT('',#572);
#209=VERTEX_POINT('',#578);
#210=VERTEX_POINT('',#586);
#211=VERTEX_POINT('',#588);
#212=VERTEX_POINT('',#596);
#213=VERTEX_POINT('',#604);
#214=VERTEX_POINT('',#618);
#215=VERTEX_POINT('',#621);
#216=VERTEX_POINT('',#623);
#217=VERTEX_POINT('',#625);
#218=VERTEX_POINT('',#628);
#219=VERTEX_POINT('',#631);
#220=VERTEX_POINT('',#635);
#221=VERTEX_POINT('',#637);
#222=VERTEX_POINT('',#641);
#223=VERTEX_POINT('',#643);
#224=CIRCLE('',#374,2.75);
#225=CIRCLE('',#375,2.75);
#226=CIRCLE('',#381,2.8);
#227=CIRCLE('',#384,2.8);
#228=CIRCLE('',#386,0.2);
#229=CIRCLE('',#387,0.2);
#230=CIRCLE('',#394,2.75);
#231=CIRCLE('',#396,0.1);
#232=CIRCLE('',#397,0.1);
#233=CIRCLE('',#398,1.95481355338547);
#234=CIRCLE('',#400,1.95481355338547);
#235=CIRCLE('',#402,2.15);
#236=CIRCLE('',#405,0.1);
#237=CIRCLE('',#406,0.2);
#238=CIRCLE('',#409,0.1);
#239=CIRCLE('',#410,0.2);
#240=EDGE_LOOP('',(#72));
#241=EDGE_LOOP('',(#73));
#242=EDGE_LOOP('',(#74,#75,#76,#77));
#243=EDGE_LOOP('',(#78,#79,#80,#81));
#244=EDGE_LOOP('',(#82,#83,#84,#85));
#245=EDGE_LOOP('',(#86,#87,#88,#89));
#246=EDGE_LOOP('',(#90));
#247=EDGE_LOOP('',(#91,#92,#93,#94));
#248=EDGE_LOOP('',(#95));
#249=EDGE_LOOP('',(#96,#97,#98,#99));
#250=EDGE_LOOP('',(#100));
#251=EDGE_LOOP('',(#101));
#252=EDGE_LOOP('',(#102));
#253=EDGE_LOOP('',(#103));
#254=EDGE_LOOP('',(#104));
#255=EDGE_LOOP('',(#105,#106,#107,#108));
#256=EDGE_LOOP('',(#109));
#257=EDGE_LOOP('',(#110,#111,#112,#113));
#258=EDGE_LOOP('',(#114,#115,#116,#117));
#259=EDGE_LOOP('',(#118,#119,#120,#121));
#260=EDGE_LOOP('',(#122,#123,#124,#125));
#261=EDGE_LOOP('',(#126));
#262=EDGE_LOOP('',(#127,#128,#129,#130));
#263=EDGE_LOOP('',(#131));
#264=EDGE_LOOP('',(#132));
#265=EDGE_LOOP('',(#133));
#266=EDGE_LOOP('',(#134));
#267=EDGE_LOOP('',(#135));
#268=EDGE_LOOP('',(#136));
#269=EDGE_LOOP('',(#137));
#270=EDGE_LOOP('',(#138));
#271=EDGE_LOOP('',(#139));
#272=EDGE_LOOP('',(#140));
#273=EDGE_LOOP('',(#141));
#274=EDGE_LOOP('',(#142));
#275=EDGE_LOOP('',(#143));
#276=EDGE_LOOP('',(#144));
#277=EDGE_LOOP('',(#145));
#278=EDGE_LOOP('',(#146));
#279=EDGE_LOOP('',(#147));
#280=EDGE_LOOP('',(#148));
#281=EDGE_LOOP('',(#149));
#282=EDGE_LOOP('',(#150));
#283=EDGE_LOOP('',(#151));
#284=FACE_BOUND('',#240,.T.);
#285=FACE_BOUND('',#241,.T.);
#286=FACE_BOUND('',#242,.T.);
#287=FACE_BOUND('',#243,.T.);
#288=FACE_BOUND('',#244,.T.);
#289=FACE_BOUND('',#245,.T.);
#290=FACE_BOUND('',#246,.T.);
#291=FACE_BOUND('',#247,.T.);
#292=FACE_BOUND('',#248,.T.);
#293=FACE_BOUND('',#249,.T.);
#294=FACE_BOUND('',#250,.T.);
#295=FACE_BOUND('',#251,.T.);
#296=FACE_BOUND('',#252,.T.);
#297=FACE_BOUND('',#253,.T.);
#298=FACE_BOUND('',#254,.T.);
#299=FACE_BOUND('',#255,.T.);
#300=FACE_BOUND('',#256,.T.);
#301=FACE_BOUND('',#257,.T.);
#302=FACE_BOUND('',#258,.T.);
#303=FACE_BOUND('',#259,.T.);
#304=FACE_BOUND('',#260,.T.);
#305=FACE_BOUND('',#261,.T.);
#306=FACE_BOUND('',#262,.T.);
#307=FACE_BOUND('',#263,.T.);
#308=FACE_BOUND('',#264,.T.);
#309=FACE_BOUND('',#265,.T.);
#310=FACE_BOUND('',#266,.T.);
#311=FACE_BOUND('',#267,.T.);
#312=FACE_BOUND('',#268,.T.);
#313=FACE_BOUND('',#269,.T.);
#314=FACE_BOUND('',#270,.T.);
#315=FACE_BOUND('',#271,.T.);
#316=FACE_BOUND('',#272,.T.);
#317=FACE_BOUND('',#273,.T.);
#318=FACE_BOUND('',#274,.T.);
#319=FACE_BOUND('',#275,.T.);
#320=FACE_BOUND('',#276,.T.);
#321=FACE_BOUND('',#277,.T.);
#322=FACE_BOUND('',#278,.T.);
#323=FACE_BOUND('',#279,.T.);
#324=FACE_BOUND('',#280,.T.);
#325=FACE_BOUND('',#281,.T.);
#326=FACE_BOUND('',#282,.T.);
#327=FACE_BOUND('',#283,.T.);
#328=CYLINDRICAL_SURFACE('',#373,2.75);
#329=CYLINDRICAL_SURFACE('',#383,2.8);
#330=CYLINDRICAL_SURFACE('',#399,1.95481355338547);
#331=CYLINDRICAL_SURFACE('',#407,0.2);
#332=CYLINDRICAL_SURFACE('',#411,0.2);
#333=CYLINDRICAL_SURFACE('',#412,0.1);
#334=CYLINDRICAL_SURFACE('',#413,0.1);
#335=ADVANCED_FACE('',(#284,#285),#328,.T.);
#336=ADVANCED_FACE('',(#286),#57,.F.);
#337=ADVANCED_FACE('',(#287),#58,.F.);
#338=ADVANCED_FACE('',(#288),#59,.F.);
#339=ADVANCED_FACE('',(#289),#60,.F.);
#340=ADVANCED_FACE('',(#290,#291),#61,.F.);
#341=ADVANCED_FACE('',(#292,#293),#62,.T.);
#342=ADVANCED_FACE('',(#294,#295),#329,.T.);
#343=ADVANCED_FACE('',(#296,#297,#298),#63,.F.);
#344=ADVANCED_FACE('',(#299,#300),#22,.T.);
#345=ADVANCED_FACE('',(#301),#64,.F.);
#346=ADVANCED_FACE('',(#302),#65,.F.);
#347=ADVANCED_FACE('',(#303),#66,.F.);
#348=ADVANCED_FACE('',(#304),#67,.F.);
#349=ADVANCED_FACE('',(#305,#306),#23,.T.);
#350=ADVANCED_FACE('',(#307,#308,#309),#68,.T.);
#351=ADVANCED_FACE('',(#310,#311),#330,.F.);
#352=ADVANCED_FACE('',(#312,#313),#24,.F.);
#353=ADVANCED_FACE('',(#314,#315),#69,.T.);
#354=ADVANCED_FACE('',(#316,#317),#70,.F.);
#355=ADVANCED_FACE('',(#318,#319),#331,.T.);
#356=ADVANCED_FACE('',(#320,#321),#71,.F.);
#357=ADVANCED_FACE('',(#322,#323),#332,.T.);
#358=ADVANCED_FACE('',(#324,#325),#333,.F.);
#359=ADVANCED_FACE('',(#326,#327),#334,.F.);
#360=CLOSED_SHELL('',(#335,#336,#337,#338,#339,#340,#341,#342,#343,#344,
#345,#346,#347,#348,#349,#350,#351,#352,#353,#354,#355,#356,#357,#358,#359));
#361=STYLED_ITEM('',(#362),#369);
#362=PRESENTATION_STYLE_ASSIGNMENT((#363));
#363=SURFACE_STYLE_USAGE(.BOTH.,#364);
#364=SURFACE_SIDE_STYLE('',(#365));
#365=SURFACE_STYLE_FILL_AREA(#366);
#366=FILL_AREA_STYLE('',(#367));
#367=FILL_AREA_STYLE_COLOUR('',#368);
#368=COLOUR_RGB('',0.400000005960464,0.699999988079071,1.);
#369=MANIFOLD_SOLID_BREP('',#360);
#370=SHAPE_DEFINITION_REPRESENTATION(#654,#371);
#371=SHAPE_REPRESENTATION('501581_Dosiernadel_Vollmetall',(#372),#649);
#372=AXIS2_PLACEMENT_3D('',#517,#415,#416);
#373=AXIS2_PLACEMENT_3D('',#518,#417,#418);
#374=AXIS2_PLACEMENT_3D('',#519,#419,#420);
#375=AXIS2_PLACEMENT_3D('',#521,#421,#422);
#376=AXIS2_PLACEMENT_3D('',#523,#423,#424);
#377=AXIS2_PLACEMENT_3D('',#532,#429,#430);
#378=AXIS2_PLACEMENT_3D('',#538,#434,#435);
#379=AXIS2_PLACEMENT_3D('',#544,#439,#440);
#380=AXIS2_PLACEMENT_3D('',#547,#443,#444);
#381=AXIS2_PLACEMENT_3D('',#548,#445,#446);
#382=AXIS2_PLACEMENT_3D('',#550,#447,#448);
#383=AXIS2_PLACEMENT_3D('',#551,#449,#450);
#384=AXIS2_PLACEMENT_3D('',#552,#451,#452);
#385=AXIS2_PLACEMENT_3D('',#554,#453,#454);
#386=AXIS2_PLACEMENT_3D('',#555,#455,#456);
#387=AXIS2_PLACEMENT_3D('',#557,#457,#458);
#388=AXIS2_PLACEMENT_3D('',#559,#459,#460);
#389=AXIS2_PLACEMENT_3D('',#584,#461,#462);
#390=AXIS2_PLACEMENT_3D('',#594,#465,#466);
#391=AXIS2_PLACEMENT_3D('',#602,#468,#469);
#392=AXIS2_PLACEMENT_3D('',#610,#471,#472);
#393=AXIS2_PLACEMENT_3D('',#616,#473,#474);
#394=AXIS2_PLACEMENT_3D('',#617,#475,#476);
#395=AXIS2_PLACEMENT_3D('',#619,#477,#478);
#396=AXIS2_PLACEMENT_3D('',#620,#479,#480);
#397=AXIS2_PLACEMENT_3D('',#622,#481,#482);
#398=AXIS2_PLACEMENT_3D('',#624,#483,#484);
#399=AXIS2_PLACEMENT_3D('',#626,#485,#486);
#400=AXIS2_PLACEMENT_3D('',#627,#487,#488);
#401=AXIS2_PLACEMENT_3D('',#629,#489,#490);
#402=AXIS2_PLACEMENT_3D('',#630,#491,#492);
#403=AXIS2_PLACEMENT_3D('',#632,#493,#494);
#404=AXIS2_PLACEMENT_3D('',#633,#495,#496);
#405=AXIS2_PLACEMENT_3D('',#634,#497,#498);
#406=AXIS2_PLACEMENT_3D('',#636,#499,#500);
#407=AXIS2_PLACEMENT_3D('',#638,#501,#502);
#408=AXIS2_PLACEMENT_3D('',#639,#503,#504);
#409=AXIS2_PLACEMENT_3D('',#640,#505,#506);
#410=AXIS2_PLACEMENT_3D('',#642,#507,#508);
#411=AXIS2_PLACEMENT_3D('',#644,#509,#510);
#412=AXIS2_PLACEMENT_3D('',#645,#511,#512);
#413=AXIS2_PLACEMENT_3D('',#646,#513,#514);
#414=AXIS2_PLACEMENT_3D('Basis',#647,#515,#516);
#415=DIRECTION('',(0.,0.,1.));
#416=DIRECTION('',(1.,0.,0.));
#417=DIRECTION('',(0.,0.,-1.));
#418=DIRECTION('',(-1.,0.,0.));
#419=DIRECTION('',(0.,0.,-1.));
#420=DIRECTION('',(-1.,0.,0.));
#421=DIRECTION('',(0.,0.,-1.));
#422=DIRECTION('',(0.,1.,0.));
#423=DIRECTION('',(0.,1.,0.));
#424=DIRECTION('',(0.,0.,1.));
#425=DIRECTION('',(1.,0.,0.));
#426=DIRECTION('',(0.,0.,-1.));
#427=DIRECTION('',(1.,0.,0.));
#428=DIRECTION('',(0.,0.,-1.));
#429=DIRECTION('',(-1.,2.16840434497101E-16,0.));
#430=DIRECTION('',(-2.16840434497101E-16,-1.,0.));
#431=DIRECTION('',(2.16840434497101E-16,1.,0.));
#432=DIRECTION('',(0.,0.,-1.));
#433=DIRECTION('',(2.16840434497101E-16,1.,0.));
#434=DIRECTION('',(-1.15648231731787E-15,-1.,0.));
#435=DIRECTION('',(1.,-1.15648231731787E-15,0.));
#436=DIRECTION('',(-1.,1.15648231731787E-15,0.));
#437=DIRECTION('',(0.,0.,-1.));
#438=DIRECTION('',(-1.,1.15648231731787E-15,0.));
#439=DIRECTION('',(1.,0.,0.));
#440=DIRECTION('',(0.,0.,-1.));
#441=DIRECTION('',(0.,-1.,0.));
#442=DIRECTION('',(0.,-1.,0.));
#443=DIRECTION('',(0.,0.,-1.));
#444=DIRECTION('',(-1.,0.,0.));
#445=DIRECTION('',(0.,0.,-1.));
#446=DIRECTION('',(0.,1.,0.));
#447=DIRECTION('',(0.,0.,-1.));
#448=DIRECTION('',(-1.,0.,0.));
#449=DIRECTION('',(0.,0.,-1.));
#450=DIRECTION('',(-1.,0.,0.));
#451=DIRECTION('',(0.,0.,-1.));
#452=DIRECTION('',(0.,1.,0.));
#453=DIRECTION('',(0.,0.,-1.));
#454=DIRECTION('',(-1.,0.,0.));
#455=DIRECTION('',(0.,0.,-1.));
#456=DIRECTION('',(0.,1.,0.));
#457=DIRECTION('',(0.,0.,-1.));
#458=DIRECTION('',(0.,1.,0.));
#459=DIRECTION('',(0.,0.,-1.));
#460=DIRECTION('',(-1.,0.,0.));
#461=DIRECTION('',(7.95081593156036E-16,-1.,0.));
#462=DIRECTION('',(1.,7.95081593156036E-16,0.));
#463=DIRECTION('',(0.,0.,-1.));
#464=DIRECTION('',(0.,0.,-1.));
#465=DIRECTION('',(-1.,0.,0.));
#466=DIRECTION('',(0.,0.,1.));
#467=DIRECTION('',(0.,0.,-1.));
#468=DIRECTION('',(8.67361737988403E-16,1.,0.));
#469=DIRECTION('',(-1.,8.67361737988403E-16,0.));
#470=DIRECTION('',(0.,0.,-1.));
#471=DIRECTION('',(1.,0.,0.));
#472=DIRECTION('',(0.,0.,-1.));
#473=DIRECTION('',(0.,0.,1.));
#474=DIRECTION('',(1.,0.,0.));
#475=DIRECTION('',(0.,0.,-1.));
#476=DIRECTION('',(-1.,0.,0.));
#477=DIRECTION('',(0.,0.,-1.));
#478=DIRECTION('',(-1.,0.,0.));
#479=DIRECTION('',(0.,0.,-1.));
#480=DIRECTION('',(-1.,0.,0.));
#481=DIRECTION('',(0.,0.,-1.));
#482=DIRECTION('',(-1.,0.,0.));
#483=DIRECTION('',(0.,0.,-1.));
#484=DIRECTION('',(-1.,0.,0.));
#485=DIRECTION('',(0.,0.,-1.));
#486=DIRECTION('',(-1.,0.,0.));
#487=DIRECTION('',(0.,0.,-1.));
#488=DIRECTION('',(-1.,0.,0.));
#489=DIRECTION('',(0.,0.,-1.));
#490=DIRECTION('',(-1.,0.,0.));
#491=DIRECTION('',(0.,0.,-1.));
#492=DIRECTION('',(-1.,0.,0.));
#493=DIRECTION('',(0.,0.,-1.));
#494=DIRECTION('',(-1.,0.,0.));
#495=DIRECTION('',(0.,0.,-1.));
#496=DIRECTION('',(-1.,0.,0.));
#497=DIRECTION('',(0.,0.,1.));
#498=DIRECTION('',(0.,1.,0.));
#499=DIRECTION('',(0.,0.,-1.));
#500=DIRECTION('',(0.,1.,0.));
#501=DIRECTION('',(0.,0.,-1.));
#502=DIRECTION('',(-1.,0.,0.));
#503=DIRECTION('',(0.,0.,-1.));
#504=DIRECTION('',(-1.,0.,0.));
#505=DIRECTION('',(0.,0.,1.));
#506=DIRECTION('',(0.,1.,0.));
#507=DIRECTION('',(0.,0.,-1.));
#508=DIRECTION('',(0.,1.,0.));
#509=DIRECTION('',(0.,0.,-1.));
#510=DIRECTION('',(-1.,0.,0.));
#511=DIRECTION('',(0.,0.,1.));
#512=DIRECTION('',(1.,0.,0.));
#513=DIRECTION('',(0.,0.,1.));
#514=DIRECTION('',(1.,0.,0.));
#515=DIRECTION('',(0.,0.,1.));
#516=DIRECTION('',(1.,0.,0.));
#517=CARTESIAN_POINT('',(0.,0.,0.));
#518=CARTESIAN_POINT('',(3.30643715532042E-15,0.,4.9));
#519=CARTESIAN_POINT('',(3.30643715532042E-15,0.,4.9));
#520=CARTESIAN_POINT('',(-2.75,0.,4.9));
#521=CARTESIAN_POINT('',(3.30643715532042E-15,0.,0.9));
#522=CARTESIAN_POINT('',(3.30643715532042E-15,2.75,0.9));
#523=CARTESIAN_POINT('',(-3.,-3.,11.4));
#524=CARTESIAN_POINT('',(-3.,-3.,4.9));
#525=CARTESIAN_POINT('',(-3.,-3.,4.9));
#526=CARTESIAN_POINT('',(3.,-3.,4.9));
#527=CARTESIAN_POINT('',(3.,-3.,11.4));
#528=CARTESIAN_POINT('',(3.,-3.,11.4));
#529=CARTESIAN_POINT('',(-3.,-3.,11.4));
#530=CARTESIAN_POINT('',(-3.,-3.,11.4));
#531=CARTESIAN_POINT('',(-3.,-3.,11.4));
#532=CARTESIAN_POINT('',(3.,-3.,11.4));
#533=CARTESIAN_POINT('',(3.,-3.,4.9));
#534=CARTESIAN_POINT('',(3.,3.,4.9));
#535=CARTESIAN_POINT('',(3.,3.,11.4));
#536=CARTESIAN_POINT('',(3.,3.,11.4));
#537=CARTESIAN_POINT('',(3.,-3.,11.4));
#538=CARTESIAN_POINT('',(3.,3.,11.4));
#539=CARTESIAN_POINT('',(3.,3.,4.9));
#540=CARTESIAN_POINT('',(-3.,3.,4.9));
#541=CARTESIAN_POINT('',(-3.,3.,11.4));
#542=CARTESIAN_POINT('',(-3.,3.,11.4));
#543=CARTESIAN_POINT('',(3.,3.,11.4));
#544=CARTESIAN_POINT('',(-3.,3.,11.4));
#545=CARTESIAN_POINT('',(-3.,3.,4.9));
#546=CARTESIAN_POINT('',(-3.,3.,11.4));
#547=CARTESIAN_POINT('',(-3.,-3.,11.4));
#548=CARTESIAN_POINT('',(-3.03576608295941E-15,0.,11.4));
#549=CARTESIAN_POINT('',(-3.03576608295941E-15,2.8,11.4));
#550=CARTESIAN_POINT('',(-3.,-3.,4.9));
#551=CARTESIAN_POINT('',(-3.03576608295941E-15,0.,14.));
#552=CARTESIAN_POINT('',(-3.03576608295941E-15,0.,14.));
#553=CARTESIAN_POINT('',(-3.03576608295941E-15,2.8,14.));
#554=CARTESIAN_POINT('',(-3.03576608295941E-15,0.,14.));
#555=CARTESIAN_POINT('',(3.55147571752733E-16,1.3,14.));
#556=CARTESIAN_POINT('',(3.55147571752733E-16,1.5,14.));
#557=CARTESIAN_POINT('',(1.95943487863577E-16,-1.3,14.));
#558=CARTESIAN_POINT('',(1.95943487863577E-16,-1.1,14.));
#559=CARTESIAN_POINT('',(0.,0.,0.9));
#560=CARTESIAN_POINT('',(-2.99999999999999,-3.,0.500048133296552));
#561=CARTESIAN_POINT('',(-2.00734773713609,-3.,0.688124658141206));
#562=CARTESIAN_POINT('',(-0.0065905382316434,-3.,0.978027036241207));
#563=CARTESIAN_POINT('',(2.00868909980496,-3.,0.687870511912204));
#564=CARTESIAN_POINT('',(3.00000000000001,-3.00000000000001,0.500048133296548));
#565=CARTESIAN_POINT('',(3.00000000000001,-3.00000000000001,0.500048133296553));
#566=CARTESIAN_POINT('',(-3.,-3.,0.500048133296557));
#567=CARTESIAN_POINT('',(3.00000000000001,-3.00000000000001,0.500048133296548));
#568=CARTESIAN_POINT('',(3.00000000000001,-2.0073477371361,0.688124658141202));
#569=CARTESIAN_POINT('',(3.00000000000001,-0.00659053823164383,0.978027036241204));
#570=CARTESIAN_POINT('',(3.00000000000001,2.00868909980495,0.687870511912204));
#571=CARTESIAN_POINT('',(3.00000000000001,3.,0.500048133296548));
#572=CARTESIAN_POINT('',(3.00000000000001,3.00000000000001,0.500048133296548));
#573=CARTESIAN_POINT('',(-3.,3.,0.500048133296551));
#574=CARTESIAN_POINT('',(-2.00734773713609,3.,0.688124658141205));
#575=CARTESIAN_POINT('',(-0.00659053823163689,3.,0.978027036241206));
#576=CARTESIAN_POINT('',(2.00868909980495,3.,0.687870511912204));
#577=CARTESIAN_POINT('',(3.00000000000001,3.,0.500048133296548));
#578=CARTESIAN_POINT('',(-3.,3.,0.500048133296557));
#579=CARTESIAN_POINT('',(-3.,-3.,0.500048133296551));
#580=CARTESIAN_POINT('',(-3.,-2.0073477371361,0.688124658141205));
#581=CARTESIAN_POINT('',(-3.,-0.00659053823164231,0.978027036241208));
#582=CARTESIAN_POINT('',(-3.,2.00868909980494,0.687870511912208));
#583=CARTESIAN_POINT('',(-3.,3.,0.500048133296552));
#584=CARTESIAN_POINT('',(3.00000000000001,3.,0.9));
#585=CARTESIAN_POINT('',(-3.,3.,0.9));
#586=CARTESIAN_POINT('',(-3.,3.,0.399951866703448));
#587=CARTESIAN_POINT('',(3.00000000000001,3.00000000000001,0.9));
#588=CARTESIAN_POINT('',(3.00000000000001,3.,0.399951866703451));
#589=CARTESIAN_POINT('',(-3.,3.,0.399951866703447));
#590=CARTESIAN_POINT('',(-2.00734773713609,3.,0.211875341858794));
#591=CARTESIAN_POINT('',(-0.00659053823163299,3.,-0.0780270362412065));
#592=CARTESIAN_POINT('',(2.00868909980495,3.,0.212129488087795));
#593=CARTESIAN_POINT('',(3.00000000000001,3.,0.399951866703451));
#594=CARTESIAN_POINT('',(3.00000000000001,-3.00000000000001,0.9));
#595=CARTESIAN_POINT('',(3.00000000000001,-3.00000000000001,0.9));
#596=CARTESIAN_POINT('',(3.00000000000001,-3.00000000000001,0.399951866703446));
#597=CARTESIAN_POINT('',(3.00000000000001,-3.00000000000001,0.399951866703452));
#598=CARTESIAN_POINT('',(3.00000000000001,-2.0073477371361,0.211875341858798));
#599=CARTESIAN_POINT('',(3.00000000000001,-0.00659053823164361,-0.0780270362412047));
#600=CARTESIAN_POINT('',(3.00000000000001,2.00868909980495,0.212129488087795));
#601=CARTESIAN_POINT('',(3.00000000000001,3.00000000000001,0.399951866703451));
#602=CARTESIAN_POINT('',(-3.,-3.,0.9));
#603=CARTESIAN_POINT('',(-3.,-3.,0.9));
#604=CARTESIAN_POINT('',(-3.,-3.,0.399951866703442));
#605=CARTESIAN_POINT('',(-3.,-3.,0.399951866703448));
#606=CARTESIAN_POINT('',(-2.00734773713609,-3.,0.211875341858794));
#607=CARTESIAN_POINT('',(-0.00659053823164535,-3.,-0.0780270362412067));
#608=CARTESIAN_POINT('',(2.00868909980495,-3.,0.212129488087795));
#609=CARTESIAN_POINT('',(3.00000000000001,-3.00000000000001,0.399951866703451));
#610=CARTESIAN_POINT('',(-3.,3.,0.9));
#611=CARTESIAN_POINT('',(-3.,-3.,0.399951866703447));
#612=CARTESIAN_POINT('',(-3.,-2.00734773713609,0.211875341858793));
#613=CARTESIAN_POINT('',(-2.99999999999999,-0.00659053823164166,-0.0780270362412085));
#614=CARTESIAN_POINT('',(-3.,2.00868909980494,0.212129488087792));
#615=CARTESIAN_POINT('',(-3.,3.,0.399951866703447));
#616=CARTESIAN_POINT('',(0.,0.,0.45));
#617=CARTESIAN_POINT('',(0.,0.,-5.42101086242752E-17));
#618=CARTESIAN_POINT('',(-2.75,0.,-5.42101086242752E-17));
#619=CARTESIAN_POINT('',(0.,0.,9.));
#620=CARTESIAN_POINT('',(3.52365706057789E-16,1.3,9.));
#621=CARTESIAN_POINT('',(-0.0999999999999997,1.3,9.));
#622=CARTESIAN_POINT('',(1.96511643762998E-16,-1.3,9.));
#623=CARTESIAN_POINT('',(-0.0999999999999998,-1.3,9.));
#624=CARTESIAN_POINT('',(0.,0.,9.));
#625=CARTESIAN_POINT('',(-1.95481355338547,0.,9.));
#626=CARTESIAN_POINT('',(0.,0.,0.));
#627=CARTESIAN_POINT('',(0.,0.,6.5));
#628=CARTESIAN_POINT('',(-1.95481355338547,0.,6.5));
#629=CARTESIAN_POINT('',(0.,0.,6.5));
#630=CARTESIAN_POINT('',(0.,0.,-8.67361737988404E-16));
#631=CARTESIAN_POINT('',(-2.15,0.,-8.67361737988404E-16));
#632=CARTESIAN_POINT('',(-3.,3.,0.));
#633=CARTESIAN_POINT('',(1.95943487863577E-16,-1.3,34.));
#634=CARTESIAN_POINT('',(1.96511643762998E-16,-1.3,34.));
#635=CARTESIAN_POINT('',(1.96511643762998E-16,-1.2,34.));
#636=CARTESIAN_POINT('',(1.95943487863577E-16,-1.3,34.));
#637=CARTESIAN_POINT('',(1.95943487863577E-16,-1.1,34.));
#638=CARTESIAN_POINT('',(1.95943487863577E-16,-1.3,34.));
#639=CARTESIAN_POINT('',(3.55147571752733E-16,1.3,34.));
#640=CARTESIAN_POINT('',(3.52365706057789E-16,1.3,34.));
#641=CARTESIAN_POINT('',(3.52365706057789E-16,1.4,34.));
#642=CARTESIAN_POINT('',(3.55147571752733E-16,1.3,34.));
#643=CARTESIAN_POINT('',(3.55147571752733E-16,1.5,34.));
#644=CARTESIAN_POINT('',(3.55147571752733E-16,1.3,34.));
#645=CARTESIAN_POINT('',(1.96511643762998E-16,-1.3,-1.11374097815984));
#646=CARTESIAN_POINT('',(3.52365706057789E-16,1.3,-1.11374097815984));
#647=CARTESIAN_POINT('',(0.,0.,0.));
#648=MECHANICAL_DESIGN_GEOMETRIC_PRESENTATION_REPRESENTATION('',(#361),
#649);
#649=(
GEOMETRIC_REPRESENTATION_CONTEXT(3)
GLOBAL_UNCERTAINTY_ASSIGNED_CONTEXT((#650))
GLOBAL_UNIT_ASSIGNED_CONTEXT((#653,#652,#651))
REPRESENTATION_CONTEXT('501581_Dosiernadel_Vollmetall',
'TOP_LEVEL_ASSEMBLY_PART')
);
#650=UNCERTAINTY_MEASURE_WITH_UNIT(LENGTH_MEASURE(0.005),#653,
'DISTANCE_ACCURACY_VALUE','Maximum Tolerance applied to model');
#651=(
NAMED_UNIT(*)
SI_UNIT($,.STERADIAN.)
SOLID_ANGLE_UNIT()
);
#652=(
NAMED_UNIT(*)
PLANE_ANGLE_UNIT()
SI_UNIT($,.RADIAN.)
);
#653=(
LENGTH_UNIT()
NAMED_UNIT(*)
SI_UNIT(.MILLI.,.METRE.)
);
#654=PRODUCT_DEFINITION_SHAPE('','',#655);
#655=PRODUCT_DEFINITION('','',#657,#656);
#656=PRODUCT_DEFINITION_CONTEXT('',#663,'design');
#657=PRODUCT_DEFINITION_FORMATION_WITH_SPECIFIED_SOURCE('','',#659,
 .NOT_KNOWN.);
#658=PRODUCT_RELATED_PRODUCT_CATEGORY('','',(#659));
#659=PRODUCT('501581_Dosiernadel_Vollmetall',
'501581_Dosiernadel_Vollmetall','501581_Dosiernadel_Vollmetall',(#661));
#660=PRODUCT_CATEGORY('','');
#661=PRODUCT_CONTEXT('',#663,'mechanical');
#662=APPLICATION_PROTOCOL_DEFINITION('international standard',
'ap242_managed_model_based_3d_engineering',2011,#663);
#663=APPLICATION_CONTEXT('managed model based 3d engineering');
ENDSEC;
END-ISO-10303-21;
