ISO-10303-21;
HEADER;
/* Generated by software containing ST-Developer
 * from STEP Tools, Inc. (www.steptools.com) 
 */
/* OPTION: strings as raw bytes, not using required /X/ escapes */

FILE_DESCRIPTION(
/* description */ ('Unknown',
'CAx-IF Rec.Pracs.---Representation and Presentation of Product Manufa
cturing Information (PMI)---4.0---2014-10-13',
'CAx-IF Rec.Pracs.---3D Tessellated Geometry---0.4---2014-09-14','2;1'),

/* implementation_level */ '2;1');

FILE_NAME(
/* name */ '8-32-S-POM_Mischrohr',
/* time_stamp */ '2023-03-07T08:26:02+01:00',
/* author */ ('Unknown'),
/* organization */ ('Unknown'),
/* preprocessor_version */ 'ST-DEVELOPER v16.7',
/* originating_system */ 'Solid Edge',
/* authorisation */ 'Unknown');

FILE_SCHEMA (('AP242_MANAGED_MODEL_BASED_3D_ENGINEERING_MIM_LF { 1 0 10303 442 1 1 4 }'));
ENDSEC;

DATA;
#10=SHAPE_REPRESENTATION_RELATIONSHIP('','',#256,#11);
#11=ADVANCED_BREP_SHAPE_REPRESENTATION('',(#254),#451);
#12=PLANE('',#267);
#13=PLANE('',#271);
#14=PLANE('',#275);
#15=PLANE('',#279);
#16=PLANE('',#283);
#17=PLANE('',#296);
#18=CYLINDRICAL_SURFACE('',#261,5.99999999999998);
#19=CYLINDRICAL_SURFACE('',#265,4.8);
#20=CYLINDRICAL_SURFACE('',#269,4.25);
#21=CYLINDRICAL_SURFACE('',#273,3.65);
#22=CYLINDRICAL_SURFACE('',#277,3.);
#23=CYLINDRICAL_SURFACE('',#281,2.5);
#24=CYLINDRICAL_SURFACE('',#286,1.55999999999998);
#25=CYLINDRICAL_SURFACE('',#290,4.14999999999998);
#26=CYLINDRICAL_SURFACE('',#294,7.95000000000002);
#27=CYLINDRICAL_SURFACE('',#298,9.80000000000002);
#28=ORIENTED_EDGE('',*,*,#70,.F.);
#29=ORIENTED_EDGE('',*,*,#71,.T.);
#30=ORIENTED_EDGE('',*,*,#72,.F.);
#31=ORIENTED_EDGE('',*,*,#70,.T.);
#32=ORIENTED_EDGE('',*,*,#73,.F.);
#33=ORIENTED_EDGE('',*,*,#72,.T.);
#34=ORIENTED_EDGE('',*,*,#74,.F.);
#35=ORIENTED_EDGE('',*,*,#73,.T.);
#36=ORIENTED_EDGE('',*,*,#75,.F.);
#37=ORIENTED_EDGE('',*,*,#74,.T.);
#38=ORIENTED_EDGE('',*,*,#76,.F.);
#39=ORIENTED_EDGE('',*,*,#75,.T.);
#40=ORIENTED_EDGE('',*,*,#77,.F.);
#41=ORIENTED_EDGE('',*,*,#76,.T.);
#42=ORIENTED_EDGE('',*,*,#78,.F.);
#43=ORIENTED_EDGE('',*,*,#77,.T.);
#44=ORIENTED_EDGE('',*,*,#79,.F.);
#45=ORIENTED_EDGE('',*,*,#78,.T.);
#46=ORIENTED_EDGE('',*,*,#80,.F.);
#47=ORIENTED_EDGE('',*,*,#79,.T.);
#48=ORIENTED_EDGE('',*,*,#81,.F.);
#49=ORIENTED_EDGE('',*,*,#80,.T.);
#50=ORIENTED_EDGE('',*,*,#82,.T.);
#51=ORIENTED_EDGE('',*,*,#81,.T.);
#52=ORIENTED_EDGE('',*,*,#83,.T.);
#53=ORIENTED_EDGE('',*,*,#84,.F.);
#54=ORIENTED_EDGE('',*,*,#85,.F.);
#55=ORIENTED_EDGE('',*,*,#84,.T.);
#56=ORIENTED_EDGE('',*,*,#86,.F.);
#57=ORIENTED_EDGE('',*,*,#85,.T.);
#58=ORIENTED_EDGE('',*,*,#87,.F.);
#59=ORIENTED_EDGE('',*,*,#86,.T.);
#60=ORIENTED_EDGE('',*,*,#88,.F.);
#61=ORIENTED_EDGE('',*,*,#87,.T.);
#62=ORIENTED_EDGE('',*,*,#89,.F.);
#63=ORIENTED_EDGE('',*,*,#88,.T.);
#64=ORIENTED_EDGE('',*,*,#90,.F.);
#65=ORIENTED_EDGE('',*,*,#89,.T.);
#66=ORIENTED_EDGE('',*,*,#71,.F.);
#67=ORIENTED_EDGE('',*,*,#90,.T.);
#68=ORIENTED_EDGE('',*,*,#82,.F.);
#69=ORIENTED_EDGE('',*,*,#83,.F.);
#70=EDGE_CURVE('',#91,#91,#112,.T.);
#71=EDGE_CURVE('',#92,#92,#113,.T.);
#72=EDGE_CURVE('',#93,#93,#114,.T.);
#73=EDGE_CURVE('',#94,#94,#115,.T.);
#74=EDGE_CURVE('',#95,#95,#116,.T.);
#75=EDGE_CURVE('',#96,#96,#117,.T.);
#76=EDGE_CURVE('',#97,#97,#118,.T.);
#77=EDGE_CURVE('',#98,#98,#119,.T.);
#78=EDGE_CURVE('',#99,#99,#120,.T.);
#79=EDGE_CURVE('',#100,#100,#121,.T.);
#80=EDGE_CURVE('',#101,#101,#122,.T.);
#81=EDGE_CURVE('',#102,#102,#123,.T.);
#82=EDGE_CURVE('',#103,#103,#124,.T.);
#83=EDGE_CURVE('',#104,#104,#125,.F.);
#84=EDGE_CURVE('',#105,#105,#126,.T.);
#85=EDGE_CURVE('',#106,#106,#127,.T.);
#86=EDGE_CURVE('',#107,#107,#128,.T.);
#87=EDGE_CURVE('',#108,#108,#129,.T.);
#88=EDGE_CURVE('',#109,#109,#130,.T.);
#89=EDGE_CURVE('',#110,#110,#131,.T.);
#90=EDGE_CURVE('',#111,#111,#132,.T.);
#91=VERTEX_POINT('',#389);
#92=VERTEX_POINT('',#391);
#93=VERTEX_POINT('',#394);
#94=VERTEX_POINT('',#397);
#95=VERTEX_POINT('',#400);
#96=VERTEX_POINT('',#403);
#97=VERTEX_POINT('',#406);
#98=VERTEX_POINT('',#409);
#99=VERTEX_POINT('',#412);
#100=VERTEX_POINT('',#415);
#101=VERTEX_POINT('',#418);
#102=VERTEX_POINT('',#421);
#103=VERTEX_POINT('',#424);
#104=VERTEX_POINT('',#427);
#105=VERTEX_POINT('',#429);
#106=VERTEX_POINT('',#432);
#107=VERTEX_POINT('',#435);
#108=VERTEX_POINT('',#438);
#109=VERTEX_POINT('',#441);
#110=VERTEX_POINT('',#444);
#111=VERTEX_POINT('',#447);
#112=CIRCLE('',#259,6.);
#113=CIRCLE('',#260,9.80000000000002);
#114=CIRCLE('',#262,5.99999999999997);
#115=CIRCLE('',#264,4.8);
#116=CIRCLE('',#266,4.8);
#117=CIRCLE('',#268,4.25);
#118=CIRCLE('',#270,4.25);
#119=CIRCLE('',#272,3.65);
#120=CIRCLE('',#274,3.65);
#121=CIRCLE('',#276,3.);
#122=CIRCLE('',#278,3.);
#123=CIRCLE('',#280,2.5);
#124=CIRCLE('',#282,2.5);
#125=CIRCLE('',#284,2.2);
#126=CIRCLE('',#285,1.55999999999999);
#127=CIRCLE('',#287,1.55999999999998);
#128=CIRCLE('',#289,4.14999999999997);
#129=CIRCLE('',#291,4.15);
#130=CIRCLE('',#293,7.95000000000002);
#131=CIRCLE('',#295,7.95000000000002);
#132=CIRCLE('',#297,9.80000000000002);
#133=EDGE_LOOP('',(#28));
#134=EDGE_LOOP('',(#29));
#135=EDGE_LOOP('',(#30));
#136=EDGE_LOOP('',(#31));
#137=EDGE_LOOP('',(#32));
#138=EDGE_LOOP('',(#33));
#139=EDGE_LOOP('',(#34));
#140=EDGE_LOOP('',(#35));
#141=EDGE_LOOP('',(#36));
#142=EDGE_LOOP('',(#37));
#143=EDGE_LOOP('',(#38));
#144=EDGE_LOOP('',(#39));
#145=EDGE_LOOP('',(#40));
#146=EDGE_LOOP('',(#41));
#147=EDGE_LOOP('',(#42));
#148=EDGE_LOOP('',(#43));
#149=EDGE_LOOP('',(#44));
#150=EDGE_LOOP('',(#45));
#151=EDGE_LOOP('',(#46));
#152=EDGE_LOOP('',(#47));
#153=EDGE_LOOP('',(#48));
#154=EDGE_LOOP('',(#49));
#155=EDGE_LOOP('',(#50));
#156=EDGE_LOOP('',(#51));
#157=EDGE_LOOP('',(#52));
#158=EDGE_LOOP('',(#53));
#159=EDGE_LOOP('',(#54));
#160=EDGE_LOOP('',(#55));
#161=EDGE_LOOP('',(#56));
#162=EDGE_LOOP('',(#57));
#163=EDGE_LOOP('',(#58));
#164=EDGE_LOOP('',(#59));
#165=EDGE_LOOP('',(#60));
#166=EDGE_LOOP('',(#61));
#167=EDGE_LOOP('',(#62));
#168=EDGE_LOOP('',(#63));
#169=EDGE_LOOP('',(#64));
#170=EDGE_LOOP('',(#65));
#171=EDGE_LOOP('',(#66));
#172=EDGE_LOOP('',(#67));
#173=EDGE_LOOP('',(#68));
#174=EDGE_LOOP('',(#69));
#175=FACE_BOUND('',#133,.T.);
#176=FACE_BOUND('',#134,.T.);
#177=FACE_BOUND('',#135,.T.);
#178=FACE_BOUND('',#136,.T.);
#179=FACE_BOUND('',#137,.T.);
#180=FACE_BOUND('',#138,.T.);
#181=FACE_BOUND('',#139,.T.);
#182=FACE_BOUND('',#140,.T.);
#183=FACE_BOUND('',#141,.T.);
#184=FACE_BOUND('',#142,.T.);
#185=FACE_BOUND('',#143,.T.);
#186=FACE_BOUND('',#144,.T.);
#187=FACE_BOUND('',#145,.T.);
#188=FACE_BOUND('',#146,.T.);
#189=FACE_BOUND('',#147,.T.);
#190=FACE_BOUND('',#148,.T.);
#191=FACE_BOUND('',#149,.T.);
#192=FACE_BOUND('',#150,.T.);
#193=FACE_BOUND('',#151,.T.);
#194=FACE_BOUND('',#152,.T.);
#195=FACE_BOUND('',#153,.T.);
#196=FACE_BOUND('',#154,.T.);
#197=FACE_BOUND('',#155,.T.);
#198=FACE_BOUND('',#156,.T.);
#199=FACE_BOUND('',#157,.T.);
#200=FACE_BOUND('',#158,.T.);
#201=FACE_BOUND('',#159,.T.);
#202=FACE_BOUND('',#160,.T.);
#203=FACE_BOUND('',#161,.T.);
#204=FACE_BOUND('',#162,.T.);
#205=FACE_BOUND('',#163,.T.);
#206=FACE_BOUND('',#164,.T.);
#207=FACE_BOUND('',#165,.T.);
#208=FACE_BOUND('',#166,.T.);
#209=FACE_BOUND('',#167,.T.);
#210=FACE_BOUND('',#168,.T.);
#211=FACE_BOUND('',#169,.T.);
#212=FACE_BOUND('',#170,.T.);
#213=FACE_BOUND('',#171,.T.);
#214=FACE_BOUND('',#172,.T.);
#215=FACE_BOUND('',#173,.T.);
#216=FACE_BOUND('',#174,.T.);
#217=CONICAL_SURFACE('',#258,9.80000000000002,0.436332312998584);
#218=CONICAL_SURFACE('',#263,5.99999999999997,0.463647609000794);
#219=CONICAL_SURFACE('',#288,1.55999999999998,0.610865238198019);
#220=CONICAL_SURFACE('',#292,4.15,0.436332312998583);
#221=CONICAL_SURFACE('',#299,2.2,0.785398163397411);
#222=ADVANCED_FACE('',(#175,#176),#217,.T.);
#223=ADVANCED_FACE('',(#177,#178),#18,.T.);
#224=ADVANCED_FACE('',(#179,#180),#218,.T.);
#225=ADVANCED_FACE('',(#181,#182),#19,.T.);
#226=ADVANCED_FACE('',(#183,#184),#12,.F.);
#227=ADVANCED_FACE('',(#185,#186),#20,.T.);
#228=ADVANCED_FACE('',(#187,#188),#13,.F.);
#229=ADVANCED_FACE('',(#189,#190),#21,.T.);
#230=ADVANCED_FACE('',(#191,#192),#14,.F.);
#231=ADVANCED_FACE('',(#193,#194),#22,.T.);
#232=ADVANCED_FACE('',(#195,#196),#15,.F.);
#233=ADVANCED_FACE('',(#197,#198),#23,.T.);
#234=ADVANCED_FACE('',(#199,#200),#16,.F.);
#235=ADVANCED_FACE('',(#201,#202),#24,.F.);
#236=ADVANCED_FACE('',(#203,#204),#219,.F.);
#237=ADVANCED_FACE('',(#205,#206),#25,.F.);
#238=ADVANCED_FACE('',(#207,#208),#220,.F.);
#239=ADVANCED_FACE('',(#209,#210),#26,.F.);
#240=ADVANCED_FACE('',(#211,#212),#17,.F.);
#241=ADVANCED_FACE('',(#213,#214),#27,.T.);
#242=ADVANCED_FACE('',(#215,#216),#221,.T.);
#243=CLOSED_SHELL('',(#222,#223,#224,#225,#226,#227,#228,#229,#230,#231,
#232,#233,#234,#235,#236,#237,#238,#239,#240,#241,#242));
#244=STYLED_ITEM('',(#245),#254);
#245=PRESENTATION_STYLE_ASSIGNMENT((#246));
#246=SURFACE_STYLE_USAGE(.BOTH.,#247);
#247=SURFACE_SIDE_STYLE('',(#250,#248));
#248=SURFACE_STYLE_RENDERING_WITH_PROPERTIES(.CONSTANT_SHADING.,#253,(#249));
#249=SURFACE_STYLE_TRANSPARENT(0.699999988079071);
#250=SURFACE_STYLE_FILL_AREA(#251);
#251=FILL_AREA_STYLE('',(#252));
#252=FILL_AREA_STYLE_COLOUR('',#253);
#253=COLOUR_RGB('',0.,0.,0.509999990463257);
#254=MANIFOLD_SOLID_BREP('',#243);
#255=SHAPE_DEFINITION_REPRESENTATION(#456,#256);
#256=SHAPE_REPRESENTATION('8-32-S-POM_Mischrohr',(#257),#451);
#257=AXIS2_PLACEMENT_3D('',#386,#300,#301);
#258=AXIS2_PLACEMENT_3D('',#387,#302,#303);
#259=AXIS2_PLACEMENT_3D('',#388,#304,#305);
#260=AXIS2_PLACEMENT_3D('',#390,#306,#307);
#261=AXIS2_PLACEMENT_3D('',#392,#308,#309);
#262=AXIS2_PLACEMENT_3D('',#393,#310,#311);
#263=AXIS2_PLACEMENT_3D('',#395,#312,#313);
#264=AXIS2_PLACEMENT_3D('',#396,#314,#315);
#265=AXIS2_PLACEMENT_3D('',#398,#316,#317);
#266=AXIS2_PLACEMENT_3D('',#399,#318,#319);
#267=AXIS2_PLACEMENT_3D('',#401,#320,#321);
#268=AXIS2_PLACEMENT_3D('',#402,#322,#323);
#269=AXIS2_PLACEMENT_3D('',#404,#324,#325);
#270=AXIS2_PLACEMENT_3D('',#405,#326,#327);
#271=AXIS2_PLACEMENT_3D('',#407,#328,#329);
#272=AXIS2_PLACEMENT_3D('',#408,#330,#331);
#273=AXIS2_PLACEMENT_3D('',#410,#332,#333);
#274=AXIS2_PLACEMENT_3D('',#411,#334,#335);
#275=AXIS2_PLACEMENT_3D('',#413,#336,#337);
#276=AXIS2_PLACEMENT_3D('',#414,#338,#339);
#277=AXIS2_PLACEMENT_3D('',#416,#340,#341);
#278=AXIS2_PLACEMENT_3D('',#417,#342,#343);
#279=AXIS2_PLACEMENT_3D('',#419,#344,#345);
#280=AXIS2_PLACEMENT_3D('',#420,#346,#347);
#281=AXIS2_PLACEMENT_3D('',#422,#348,#349);
#282=AXIS2_PLACEMENT_3D('',#423,#350,#351);
#283=AXIS2_PLACEMENT_3D('',#425,#352,#353);
#284=AXIS2_PLACEMENT_3D('',#426,#354,#355);
#285=AXIS2_PLACEMENT_3D('',#428,#356,#357);
#286=AXIS2_PLACEMENT_3D('',#430,#358,#359);
#287=AXIS2_PLACEMENT_3D('',#431,#360,#361);
#288=AXIS2_PLACEMENT_3D('',#433,#362,#363);
#289=AXIS2_PLACEMENT_3D('',#434,#364,#365);
#290=AXIS2_PLACEMENT_3D('',#436,#366,#367);
#291=AXIS2_PLACEMENT_3D('',#437,#368,#369);
#292=AXIS2_PLACEMENT_3D('',#439,#370,#371);
#293=AXIS2_PLACEMENT_3D('',#440,#372,#373);
#294=AXIS2_PLACEMENT_3D('',#442,#374,#375);
#295=AXIS2_PLACEMENT_3D('',#443,#376,#377);
#296=AXIS2_PLACEMENT_3D('',#445,#378,#379);
#297=AXIS2_PLACEMENT_3D('',#446,#380,#381);
#298=AXIS2_PLACEMENT_3D('',#448,#382,#383);
#299=AXIS2_PLACEMENT_3D('',#449,#384,#385);
#300=DIRECTION('',(0.,0.,1.));
#301=DIRECTION('',(1.,0.,0.));
#302=DIRECTION('',(0.,0.,1.));
#303=DIRECTION('',(1.,0.,0.));
#304=DIRECTION('',(0.,0.,-1.));
#305=DIRECTION('',(-1.,0.,0.));
#306=DIRECTION('',(0.,0.,-1.));
#307=DIRECTION('',(-1.,0.,0.));
#308=DIRECTION('',(0.,0.,-1.));
#309=DIRECTION('',(-1.,0.,0.));
#310=DIRECTION('',(0.,0.,-1.));
#311=DIRECTION('',(-1.,0.,0.));
#312=DIRECTION('',(0.,0.,1.));
#313=DIRECTION('',(1.,0.,0.));
#314=DIRECTION('',(0.,0.,-1.));
#315=DIRECTION('',(-1.,0.,0.));
#316=DIRECTION('',(0.,0.,-1.));
#317=DIRECTION('',(-1.,0.,0.));
#318=DIRECTION('',(0.,0.,-1.));
#319=DIRECTION('',(-1.,0.,0.));
#320=DIRECTION('',(0.,0.,1.));
#321=DIRECTION('',(1.,0.,0.));
#322=DIRECTION('',(0.,0.,-1.));
#323=DIRECTION('',(-1.,0.,0.));
#324=DIRECTION('',(0.,0.,-1.));
#325=DIRECTION('',(-1.,0.,0.));
#326=DIRECTION('',(0.,0.,-1.));
#327=DIRECTION('',(-1.,0.,0.));
#328=DIRECTION('',(0.,0.,1.));
#329=DIRECTION('',(1.,0.,0.));
#330=DIRECTION('',(0.,0.,-1.));
#331=DIRECTION('',(-1.,0.,0.));
#332=DIRECTION('',(0.,0.,-1.));
#333=DIRECTION('',(-1.,0.,0.));
#334=DIRECTION('',(0.,0.,-1.));
#335=DIRECTION('',(-1.,0.,0.));
#336=DIRECTION('',(0.,0.,1.));
#337=DIRECTION('',(1.,0.,0.));
#338=DIRECTION('',(0.,0.,-1.));
#339=DIRECTION('',(-1.,0.,0.));
#340=DIRECTION('',(0.,0.,-1.));
#341=DIRECTION('',(-1.,0.,0.));
#342=DIRECTION('',(0.,0.,-1.));
#343=DIRECTION('',(-1.,0.,0.));
#344=DIRECTION('',(0.,0.,1.));
#345=DIRECTION('',(1.,0.,0.));
#346=DIRECTION('',(0.,0.,-1.));
#347=DIRECTION('',(-1.,0.,0.));
#348=DIRECTION('',(0.,0.,-1.));
#349=DIRECTION('',(-1.,0.,0.));
#350=DIRECTION('',(0.,0.,1.));
#351=DIRECTION('',(1.,0.,0.));
#352=DIRECTION('',(0.,0.,1.));
#353=DIRECTION('',(1.,0.,0.));
#354=DIRECTION('',(0.,0.,1.));
#355=DIRECTION('',(1.,0.,0.));
#356=DIRECTION('',(0.,0.,-1.));
#357=DIRECTION('',(-1.,0.,0.));
#358=DIRECTION('',(0.,0.,-1.));
#359=DIRECTION('',(-1.,0.,0.));
#360=DIRECTION('',(0.,0.,-1.));
#361=DIRECTION('',(-1.,0.,0.));
#362=DIRECTION('',(0.,0.,1.));
#363=DIRECTION('',(1.,0.,0.));
#364=DIRECTION('',(0.,0.,-1.));
#365=DIRECTION('',(-1.,0.,0.));
#366=DIRECTION('',(0.,0.,-1.));
#367=DIRECTION('',(-1.,0.,0.));
#368=DIRECTION('',(0.,0.,-1.));
#369=DIRECTION('',(-1.,0.,0.));
#370=DIRECTION('',(0.,0.,1.));
#371=DIRECTION('',(1.,0.,0.));
#372=DIRECTION('',(0.,0.,-1.));
#373=DIRECTION('',(-1.,0.,0.));
#374=DIRECTION('',(0.,0.,-1.));
#375=DIRECTION('',(-1.,0.,0.));
#376=DIRECTION('',(0.,0.,-1.));
#377=DIRECTION('',(-1.,0.,0.));
#378=DIRECTION('',(0.,0.,-1.));
#379=DIRECTION('',(-1.,0.,0.));
#380=DIRECTION('',(0.,0.,-1.));
#381=DIRECTION('',(-1.,0.,0.));
#382=DIRECTION('',(0.,0.,-1.));
#383=DIRECTION('',(-1.,0.,0.));
#384=DIRECTION('',(0.,0.,1.));
#385=DIRECTION('',(1.,0.,0.));
#386=CARTESIAN_POINT('',(0.,0.,0.));
#387=CARTESIAN_POINT('',(2.29850860566927E-14,0.,-7.));
#388=CARTESIAN_POINT('',(2.29850860566927E-14,0.,-15.1491262979363));
#389=CARTESIAN_POINT('',(-5.99999999999998,0.,-15.1491262979363));
#390=CARTESIAN_POINT('',(2.29850860566927E-14,0.,-7.));
#391=CARTESIAN_POINT('',(-9.8,0.,-7.));
#392=CARTESIAN_POINT('',(2.29850860566927E-14,0.,0.));
#393=CARTESIAN_POINT('',(2.29850860566927E-14,0.,-270.3));
#394=CARTESIAN_POINT('',(-5.99999999999995,0.,-270.3));
#395=CARTESIAN_POINT('',(2.29850860566927E-14,0.,-270.3));
#396=CARTESIAN_POINT('',(2.29850860566927E-14,0.,-272.7));
#397=CARTESIAN_POINT('',(-4.79999999999997,0.,-272.7));
#398=CARTESIAN_POINT('',(2.29850860566927E-14,0.,0.));
#399=CARTESIAN_POINT('',(2.29850860566927E-14,0.,-276.));
#400=CARTESIAN_POINT('',(-4.79999999999998,0.,-276.));
#401=CARTESIAN_POINT('',(-4.24999999999998,0.,-276.));
#402=CARTESIAN_POINT('',(2.29850860566927E-14,0.,-276.));
#403=CARTESIAN_POINT('',(-4.24999999999998,0.,-276.));
#404=CARTESIAN_POINT('',(2.29850860566927E-14,0.,0.));
#405=CARTESIAN_POINT('',(2.29850860566927E-14,0.,-279.3));
#406=CARTESIAN_POINT('',(-4.24999999999998,0.,-279.3));
#407=CARTESIAN_POINT('',(-3.64999999999998,0.,-279.3));
#408=CARTESIAN_POINT('',(2.29850860566927E-14,0.,-279.3));
#409=CARTESIAN_POINT('',(-3.64999999999998,0.,-279.3));
#410=CARTESIAN_POINT('',(2.29850860566927E-14,0.,0.));
#411=CARTESIAN_POINT('',(2.29850860566927E-14,0.,-282.5));
#412=CARTESIAN_POINT('',(-3.64999999999998,0.,-282.5));
#413=CARTESIAN_POINT('',(-2.99999999999998,0.,-282.5));
#414=CARTESIAN_POINT('',(2.29850860566927E-14,0.,-282.5));
#415=CARTESIAN_POINT('',(-2.99999999999998,0.,-282.5));
#416=CARTESIAN_POINT('',(2.29850860566927E-14,0.,0.));
#417=CARTESIAN_POINT('',(2.29850860566927E-14,0.,-285.5));
#418=CARTESIAN_POINT('',(-2.99999999999998,0.,-285.5));
#419=CARTESIAN_POINT('',(-2.99999999999998,0.,-285.5));
#420=CARTESIAN_POINT('',(2.29850860566927E-14,0.,-285.5));
#421=CARTESIAN_POINT('',(-2.49999999999998,0.,-285.5));
#422=CARTESIAN_POINT('',(2.29850860566927E-14,0.,0.));
#423=CARTESIAN_POINT('',(2.29850860566927E-14,0.,-288.7));
#424=CARTESIAN_POINT('',(2.50000000000002,0.,-288.7));
#425=CARTESIAN_POINT('',(-1.55999999999996,0.,-289.));
#426=CARTESIAN_POINT('',(2.29850860566927E-14,0.,-289.));
#427=CARTESIAN_POINT('',(2.20000000000002,0.,-289.));
#428=CARTESIAN_POINT('',(2.29850860566927E-14,0.,-289.));
#429=CARTESIAN_POINT('',(-1.55999999999996,0.,-289.));
#430=CARTESIAN_POINT('',(2.29850860566927E-14,0.,0.));
#431=CARTESIAN_POINT('',(2.29850860566927E-14,0.,-271.698903337462));
#432=CARTESIAN_POINT('',(-1.55999999999996,0.,-271.698903337462));
#433=CARTESIAN_POINT('',(2.29850860566927E-14,0.,-271.698903337462));
#434=CARTESIAN_POINT('',(2.29850860566927E-14,0.,-268.));
#435=CARTESIAN_POINT('',(-4.14999999999995,0.,-268.));
#436=CARTESIAN_POINT('',(2.29850860566927E-14,0.,0.));
#437=CARTESIAN_POINT('',(2.29850860566927E-14,0.,-14.7389911720469));
#438=CARTESIAN_POINT('',(-4.14999999999998,0.,-14.7389911720469));
#439=CARTESIAN_POINT('',(2.29850860566927E-14,0.,-14.7389911720469));
#440=CARTESIAN_POINT('',(2.29850860566927E-14,0.,-6.58986487411056));
#441=CARTESIAN_POINT('',(-7.95,0.,-6.58986487411056));
#442=CARTESIAN_POINT('',(2.29850860566927E-14,0.,0.));
#443=CARTESIAN_POINT('',(2.29850860566927E-14,0.,4.89858719658941E-17));
#444=CARTESIAN_POINT('',(-7.95,0.,4.89858719658941E-17));
#445=CARTESIAN_POINT('',(-7.95,0.,-8.87868929381832E-17));
#446=CARTESIAN_POINT('',(2.29850860566927E-14,0.,-2.2655965784226E-16));
#447=CARTESIAN_POINT('',(-9.8,0.,-2.2655965784226E-16));
#448=CARTESIAN_POINT('',(2.29850860566927E-14,0.,0.));
#449=CARTESIAN_POINT('',(2.29850860566927E-14,0.,-289.));
#450=MECHANICAL_DESIGN_GEOMETRIC_PRESENTATION_REPRESENTATION('',(#244),
#451);
#451=(
GEOMETRIC_REPRESENTATION_CONTEXT(3)
GLOBAL_UNCERTAINTY_ASSIGNED_CONTEXT((#452))
GLOBAL_UNIT_ASSIGNED_CONTEXT((#455,#454,#453))
REPRESENTATION_CONTEXT('8-32-S-POM_Mischrohr','TOP_LEVEL_ASSEMBLY_PART')
);
#452=UNCERTAINTY_MEASURE_WITH_UNIT(LENGTH_MEASURE(0.005),#455,
'DISTANCE_ACCURACY_VALUE','Maximum Tolerance applied to model');
#453=(
NAMED_UNIT(*)
SI_UNIT($,.STERADIAN.)
SOLID_ANGLE_UNIT()
);
#454=(
NAMED_UNIT(*)
PLANE_ANGLE_UNIT()
SI_UNIT($,.RADIAN.)
);
#455=(
LENGTH_UNIT()
NAMED_UNIT(*)
SI_UNIT(.MILLI.,.METRE.)
);
#456=PRODUCT_DEFINITION_SHAPE('','',#457);
#457=PRODUCT_DEFINITION('','',#459,#458);
#458=PRODUCT_DEFINITION_CONTEXT('',#465,'design');
#459=PRODUCT_DEFINITION_FORMATION_WITH_SPECIFIED_SOURCE('','',#461,
 .NOT_KNOWN.);
#460=PRODUCT_RELATED_PRODUCT_CATEGORY('','',(#461));
#461=PRODUCT('8-32-S-POM_Mischrohr','8-32-S-POM_Mischrohr',
'8-32-S-POM_Mischrohr',(#463));
#462=PRODUCT_CATEGORY('','');
#463=PRODUCT_CONTEXT('',#465,'mechanical');
#464=APPLICATION_PROTOCOL_DEFINITION('international standard',
'ap242_managed_model_based_3d_engineering',2011,#465);
#465=APPLICATION_CONTEXT('managed model based 3d engineering');
ENDSEC;
END-ISO-10303-21;
