ISO-10303-21;
HEADER;
/* Generated by software containing ST-Developer
 * from STEP Tools, Inc. (www.steptools.com) 
 */
/* OPTION: strings as raw bytes, not using required /X/ escapes */

FILE_DESCRIPTION(
/* description */ ('Unknown',
'CAx-IF Rec.Pracs.---Representation and Presentation of Product Manufa
cturing Information (PMI)---4.0---2014-10-13',
'CAx-IF Rec.Pracs.---3D Tessellated Geometry---0.4---2014-09-14','2;1'),

/* implementation_level */ '2;1');

FILE_NAME(
/* name */ '501912_5901015_MicronS',
/* time_stamp */ '2024-02-29T10:05:44+01:00',
/* author */ ('Unknown'),
/* organization */ ('Unknown'),
/* preprocessor_version */ 'ST-DEVELOPER v16.7',
/* originating_system */ 'Solid Edge',
/* authorisation */ 'Unknown');

FILE_SCHEMA (('AP242_MANAGED_MODEL_BASED_3D_ENGINEERING_MIM_LF { 1 0 10303 442 1 1 4 }'));
ENDSEC;

DATA;
#10=SHAPE_REPRESENTATION_RELATIONSHIP('','',#427,#11);
#11=ADVANCED_BREP_SHAPE_REPRESENTATION('',(#425),#639);
#12=CONICAL_SURFACE('',#454,0.405,0.183381453250464);
#13=CONICAL_SURFACE('',#455,1.69488402558686,0.183381453250464);
#14=CONICAL_SURFACE('',#465,1.86172463269239,0.0300196631343023);
#15=CYLINDRICAL_SURFACE('',#445,3.9);
#16=CYLINDRICAL_SURFACE('',#452,0.405);
#17=CYLINDRICAL_SURFACE('',#458,0.305);
#18=CYLINDRICAL_SURFACE('',#459,3.35);
#19=CYLINDRICAL_SURFACE('',#460,3.35);
#20=CYLINDRICAL_SURFACE('',#461,3.35);
#21=CYLINDRICAL_SURFACE('',#462,3.35);
#22=LINE('',#562,#38);
#23=LINE('',#567,#39);
#24=LINE('',#571,#40);
#25=LINE('',#575,#41);
#26=LINE('',#579,#42);
#27=LINE('',#581,#43);
#28=LINE('',#583,#44);
#29=LINE('',#585,#45);
#30=LINE('',#587,#46);
#31=LINE('',#589,#47);
#32=LINE('',#591,#48);
#33=LINE('',#593,#49);
#34=LINE('',#595,#50);
#35=LINE('',#597,#51);
#36=LINE('',#599,#52);
#37=LINE('',#601,#53);
#38=VECTOR('',#472,1000.);
#39=VECTOR('',#475,1000.);
#40=VECTOR('',#478,1000.);
#41=VECTOR('',#481,1000.);
#42=VECTOR('',#486,1000.);
#43=VECTOR('',#487,1000.);
#44=VECTOR('',#488,1000.);
#45=VECTOR('',#491,1000.);
#46=VECTOR('',#492,1000.);
#47=VECTOR('',#493,1000.);
#48=VECTOR('',#496,1000.);
#49=VECTOR('',#497,1000.);
#50=VECTOR('',#498,1000.);
#51=VECTOR('',#501,1000.);
#52=VECTOR('',#502,1000.);
#53=VECTOR('',#503,1000.);
#54=ORIENTED_EDGE('',*,*,#122,.F.);
#55=ORIENTED_EDGE('',*,*,#123,.T.);
#56=ORIENTED_EDGE('',*,*,#124,.T.);
#57=ORIENTED_EDGE('',*,*,#125,.T.);
#58=ORIENTED_EDGE('',*,*,#126,.T.);
#59=ORIENTED_EDGE('',*,*,#127,.T.);
#60=ORIENTED_EDGE('',*,*,#128,.T.);
#61=ORIENTED_EDGE('',*,*,#129,.T.);
#62=ORIENTED_EDGE('',*,*,#130,.T.);
#63=ORIENTED_EDGE('',*,*,#131,.F.);
#64=ORIENTED_EDGE('',*,*,#123,.F.);
#65=ORIENTED_EDGE('',*,*,#132,.F.);
#66=ORIENTED_EDGE('',*,*,#133,.T.);
#67=ORIENTED_EDGE('',*,*,#134,.F.);
#68=ORIENTED_EDGE('',*,*,#125,.F.);
#69=ORIENTED_EDGE('',*,*,#135,.F.);
#70=ORIENTED_EDGE('',*,*,#136,.T.);
#71=ORIENTED_EDGE('',*,*,#137,.F.);
#72=ORIENTED_EDGE('',*,*,#127,.F.);
#73=ORIENTED_EDGE('',*,*,#138,.F.);
#74=ORIENTED_EDGE('',*,*,#139,.T.);
#75=ORIENTED_EDGE('',*,*,#140,.F.);
#76=ORIENTED_EDGE('',*,*,#129,.F.);
#77=ORIENTED_EDGE('',*,*,#141,.F.);
#78=ORIENTED_EDGE('',*,*,#142,.T.);
#79=ORIENTED_EDGE('',*,*,#143,.F.);
#80=ORIENTED_EDGE('',*,*,#142,.F.);
#81=ORIENTED_EDGE('',*,*,#144,.T.);
#82=ORIENTED_EDGE('',*,*,#139,.F.);
#83=ORIENTED_EDGE('',*,*,#145,.T.);
#84=ORIENTED_EDGE('',*,*,#136,.F.);
#85=ORIENTED_EDGE('',*,*,#146,.T.);
#86=ORIENTED_EDGE('',*,*,#133,.F.);
#87=ORIENTED_EDGE('',*,*,#147,.T.);
#88=ORIENTED_EDGE('',*,*,#143,.T.);
#89=ORIENTED_EDGE('',*,*,#148,.F.);
#90=ORIENTED_EDGE('',*,*,#148,.T.);
#91=ORIENTED_EDGE('',*,*,#149,.T.);
#92=ORIENTED_EDGE('',*,*,#150,.T.);
#93=ORIENTED_EDGE('',*,*,#151,.F.);
#94=ORIENTED_EDGE('',*,*,#152,.T.);
#95=ORIENTED_EDGE('',*,*,#150,.F.);
#96=ORIENTED_EDGE('',*,*,#122,.T.);
#97=ORIENTED_EDGE('',*,*,#152,.F.);
#98=ORIENTED_EDGE('',*,*,#153,.T.);
#99=ORIENTED_EDGE('',*,*,#154,.T.);
#100=ORIENTED_EDGE('',*,*,#154,.F.);
#101=ORIENTED_EDGE('',*,*,#151,.T.);
#102=ORIENTED_EDGE('',*,*,#131,.T.);
#103=ORIENTED_EDGE('',*,*,#146,.F.);
#104=ORIENTED_EDGE('',*,*,#135,.T.);
#105=ORIENTED_EDGE('',*,*,#124,.F.);
#106=ORIENTED_EDGE('',*,*,#134,.T.);
#107=ORIENTED_EDGE('',*,*,#145,.F.);
#108=ORIENTED_EDGE('',*,*,#138,.T.);
#109=ORIENTED_EDGE('',*,*,#126,.F.);
#110=ORIENTED_EDGE('',*,*,#137,.T.);
#111=ORIENTED_EDGE('',*,*,#144,.F.);
#112=ORIENTED_EDGE('',*,*,#141,.T.);
#113=ORIENTED_EDGE('',*,*,#128,.F.);
#114=ORIENTED_EDGE('',*,*,#132,.T.);
#115=ORIENTED_EDGE('',*,*,#130,.F.);
#116=ORIENTED_EDGE('',*,*,#140,.T.);
#117=ORIENTED_EDGE('',*,*,#147,.F.);
#118=ORIENTED_EDGE('',*,*,#155,.F.);
#119=ORIENTED_EDGE('',*,*,#153,.F.);
#120=ORIENTED_EDGE('',*,*,#149,.F.);
#121=ORIENTED_EDGE('',*,*,#155,.T.);
#122=EDGE_CURVE('',#156,#156,#182,.T.);
#123=EDGE_CURVE('',#157,#158,#22,.T.);
#124=EDGE_CURVE('',#158,#159,#183,.T.);
#125=EDGE_CURVE('',#159,#160,#23,.T.);
#126=EDGE_CURVE('',#160,#161,#184,.T.);
#127=EDGE_CURVE('',#161,#162,#24,.T.);
#128=EDGE_CURVE('',#162,#163,#185,.T.);
#129=EDGE_CURVE('',#163,#164,#25,.T.);
#130=EDGE_CURVE('',#164,#157,#186,.T.);
#131=EDGE_CURVE('',#158,#165,#26,.T.);
#132=EDGE_CURVE('',#166,#157,#27,.F.);
#133=EDGE_CURVE('',#166,#165,#28,.T.);
#134=EDGE_CURVE('',#160,#167,#29,.T.);
#135=EDGE_CURVE('',#168,#159,#30,.F.);
#136=EDGE_CURVE('',#168,#167,#31,.T.);
#137=EDGE_CURVE('',#162,#169,#32,.T.);
#138=EDGE_CURVE('',#170,#161,#33,.F.);
#139=EDGE_CURVE('',#170,#169,#34,.T.);
#140=EDGE_CURVE('',#164,#171,#35,.T.);
#141=EDGE_CURVE('',#172,#163,#36,.F.);
#142=EDGE_CURVE('',#172,#171,#37,.T.);
#143=EDGE_CURVE('',#173,#173,#187,.T.);
#144=EDGE_CURVE('',#172,#169,#188,.T.);
#145=EDGE_CURVE('',#170,#167,#189,.T.);
#146=EDGE_CURVE('',#168,#165,#190,.T.);
#147=EDGE_CURVE('',#166,#171,#191,.T.);
#148=EDGE_CURVE('',#174,#174,#192,.T.);
#149=EDGE_CURVE('',#175,#175,#193,.T.);
#150=EDGE_CURVE('',#176,#176,#194,.T.);
#151=EDGE_CURVE('',#177,#177,#195,.T.);
#152=EDGE_CURVE('',#178,#178,#196,.T.);
#153=EDGE_CURVE('',#179,#179,#197,.F.);
#154=EDGE_CURVE('',#180,#180,#198,.T.);
#155=EDGE_CURVE('',#181,#181,#199,.T.);
#156=VERTEX_POINT('',#561);
#157=VERTEX_POINT('',#563);
#158=VERTEX_POINT('',#564);
#159=VERTEX_POINT('',#566);
#160=VERTEX_POINT('',#568);
#161=VERTEX_POINT('',#570);
#162=VERTEX_POINT('',#572);
#163=VERTEX_POINT('',#574);
#164=VERTEX_POINT('',#576);
#165=VERTEX_POINT('',#580);
#166=VERTEX_POINT('',#582);
#167=VERTEX_POINT('',#586);
#168=VERTEX_POINT('',#588);
#169=VERTEX_POINT('',#592);
#170=VERTEX_POINT('',#594);
#171=VERTEX_POINT('',#598);
#172=VERTEX_POINT('',#600);
#173=VERTEX_POINT('',#604);
#174=VERTEX_POINT('',#611);
#175=VERTEX_POINT('',#614);
#176=VERTEX_POINT('',#617);
#177=VERTEX_POINT('',#619);
#178=VERTEX_POINT('',#622);
#179=VERTEX_POINT('',#626);
#180=VERTEX_POINT('',#628);
#181=VERTEX_POINT('',#636);
#182=CIRCLE('',#430,2.);
#183=CIRCLE('',#431,3.35);
#184=CIRCLE('',#432,3.35);
#185=CIRCLE('',#433,3.35);
#186=CIRCLE('',#434,3.35);
#187=CIRCLE('',#440,3.9);
#188=CIRCLE('',#441,3.35);
#189=CIRCLE('',#442,3.35);
#190=CIRCLE('',#443,3.35);
#191=CIRCLE('',#444,3.35);
#192=CIRCLE('',#446,3.9);
#193=CIRCLE('',#448,2.15);
#194=CIRCLE('',#450,0.405);
#195=CIRCLE('',#451,0.305);
#196=CIRCLE('',#453,0.405);
#197=CIRCLE('',#456,1.69488402558686);
#198=CIRCLE('',#457,0.305);
#199=CIRCLE('',#464,1.86172463269239);
#200=EDGE_LOOP('',(#54));
#201=EDGE_LOOP('',(#55,#56,#57,#58,#59,#60,#61,#62));
#202=EDGE_LOOP('',(#63,#64,#65,#66));
#203=EDGE_LOOP('',(#67,#68,#69,#70));
#204=EDGE_LOOP('',(#71,#72,#73,#74));
#205=EDGE_LOOP('',(#75,#76,#77,#78));
#206=EDGE_LOOP('',(#79));
#207=EDGE_LOOP('',(#80,#81,#82,#83,#84,#85,#86,#87));
#208=EDGE_LOOP('',(#88));
#209=EDGE_LOOP('',(#89));
#210=EDGE_LOOP('',(#90));
#211=EDGE_LOOP('',(#91));
#212=EDGE_LOOP('',(#92));
#213=EDGE_LOOP('',(#93));
#214=EDGE_LOOP('',(#94));
#215=EDGE_LOOP('',(#95));
#216=EDGE_LOOP('',(#96));
#217=EDGE_LOOP('',(#97));
#218=EDGE_LOOP('',(#98));
#219=EDGE_LOOP('',(#99));
#220=EDGE_LOOP('',(#100));
#221=EDGE_LOOP('',(#101));
#222=EDGE_LOOP('',(#102,#103,#104,#105));
#223=EDGE_LOOP('',(#106,#107,#108,#109));
#224=EDGE_LOOP('',(#110,#111,#112,#113));
#225=EDGE_LOOP('',(#114,#115,#116,#117));
#226=EDGE_LOOP('',(#118));
#227=EDGE_LOOP('',(#119));
#228=EDGE_LOOP('',(#120));
#229=EDGE_LOOP('',(#121));
#230=FACE_BOUND('',#200,.T.);
#231=FACE_BOUND('',#201,.T.);
#232=FACE_BOUND('',#202,.T.);
#233=FACE_BOUND('',#203,.T.);
#234=FACE_BOUND('',#204,.T.);
#235=FACE_BOUND('',#205,.T.);
#236=FACE_BOUND('',#206,.T.);
#237=FACE_BOUND('',#207,.T.);
#238=FACE_BOUND('',#208,.T.);
#239=FACE_BOUND('',#209,.T.);
#240=FACE_BOUND('',#210,.T.);
#241=FACE_BOUND('',#211,.T.);
#242=FACE_BOUND('',#212,.T.);
#243=FACE_BOUND('',#213,.T.);
#244=FACE_BOUND('',#214,.T.);
#245=FACE_BOUND('',#215,.T.);
#246=FACE_BOUND('',#216,.T.);
#247=FACE_BOUND('',#217,.T.);
#248=FACE_BOUND('',#218,.T.);
#249=FACE_BOUND('',#219,.T.);
#250=FACE_BOUND('',#220,.T.);
#251=FACE_BOUND('',#221,.T.);
#252=FACE_BOUND('',#222,.T.);
#253=FACE_BOUND('',#223,.T.);
#254=FACE_BOUND('',#224,.T.);
#255=FACE_BOUND('',#225,.T.);
#256=FACE_BOUND('',#226,.T.);
#257=FACE_BOUND('',#227,.T.);
#258=FACE_BOUND('',#228,.T.);
#259=FACE_BOUND('',#229,.T.);
#260=PLANE('',#429);
#261=PLANE('',#435);
#262=PLANE('',#436);
#263=PLANE('',#437);
#264=PLANE('',#438);
#265=PLANE('',#439);
#266=PLANE('',#447);
#267=PLANE('',#449);
#268=PLANE('',#463);
#269=STYLED_ITEM('',(#288),#405);
#270=STYLED_ITEM('',(#289),#406);
#271=STYLED_ITEM('',(#290),#407);
#272=STYLED_ITEM('',(#291),#408);
#273=STYLED_ITEM('',(#292),#409);
#274=STYLED_ITEM('',(#293),#410);
#275=STYLED_ITEM('',(#294),#411);
#276=STYLED_ITEM('',(#295),#412);
#277=STYLED_ITEM('',(#296),#413);
#278=STYLED_ITEM('',(#297),#414);
#279=STYLED_ITEM('',(#298),#415);
#280=STYLED_ITEM('',(#299),#416);
#281=STYLED_ITEM('',(#300),#417);
#282=STYLED_ITEM('',(#301),#418);
#283=STYLED_ITEM('',(#302),#419);
#284=STYLED_ITEM('',(#303),#420);
#285=STYLED_ITEM('',(#304),#421);
#286=STYLED_ITEM('',(#305),#422);
#287=STYLED_ITEM('',(#306),#423);
#288=PRESENTATION_STYLE_ASSIGNMENT((#307));
#289=PRESENTATION_STYLE_ASSIGNMENT((#308));
#290=PRESENTATION_STYLE_ASSIGNMENT((#309));
#291=PRESENTATION_STYLE_ASSIGNMENT((#310));
#292=PRESENTATION_STYLE_ASSIGNMENT((#311));
#293=PRESENTATION_STYLE_ASSIGNMENT((#312));
#294=PRESENTATION_STYLE_ASSIGNMENT((#313));
#295=PRESENTATION_STYLE_ASSIGNMENT((#314));
#296=PRESENTATION_STYLE_ASSIGNMENT((#315));
#297=PRESENTATION_STYLE_ASSIGNMENT((#316));
#298=PRESENTATION_STYLE_ASSIGNMENT((#317));
#299=PRESENTATION_STYLE_ASSIGNMENT((#318));
#300=PRESENTATION_STYLE_ASSIGNMENT((#319));
#301=PRESENTATION_STYLE_ASSIGNMENT((#320));
#302=PRESENTATION_STYLE_ASSIGNMENT((#321));
#303=PRESENTATION_STYLE_ASSIGNMENT((#322));
#304=PRESENTATION_STYLE_ASSIGNMENT((#323));
#305=PRESENTATION_STYLE_ASSIGNMENT((#324));
#306=PRESENTATION_STYLE_ASSIGNMENT((#325));
#307=SURFACE_STYLE_USAGE(.BOTH.,#326);
#308=SURFACE_STYLE_USAGE(.BOTH.,#327);
#309=SURFACE_STYLE_USAGE(.BOTH.,#328);
#310=SURFACE_STYLE_USAGE(.BOTH.,#329);
#311=SURFACE_STYLE_USAGE(.BOTH.,#330);
#312=SURFACE_STYLE_USAGE(.BOTH.,#331);
#313=SURFACE_STYLE_USAGE(.BOTH.,#332);
#314=SURFACE_STYLE_USAGE(.BOTH.,#333);
#315=SURFACE_STYLE_USAGE(.BOTH.,#334);
#316=SURFACE_STYLE_USAGE(.BOTH.,#335);
#317=SURFACE_STYLE_USAGE(.BOTH.,#336);
#318=SURFACE_STYLE_USAGE(.BOTH.,#337);
#319=SURFACE_STYLE_USAGE(.BOTH.,#338);
#320=SURFACE_STYLE_USAGE(.BOTH.,#339);
#321=SURFACE_STYLE_USAGE(.BOTH.,#340);
#322=SURFACE_STYLE_USAGE(.BOTH.,#341);
#323=SURFACE_STYLE_USAGE(.BOTH.,#342);
#324=SURFACE_STYLE_USAGE(.BOTH.,#343);
#325=SURFACE_STYLE_USAGE(.BOTH.,#344);
#326=SURFACE_SIDE_STYLE('',(#345));
#327=SURFACE_SIDE_STYLE('',(#346));
#328=SURFACE_SIDE_STYLE('',(#347));
#329=SURFACE_SIDE_STYLE('',(#348));
#330=SURFACE_SIDE_STYLE('',(#349));
#331=SURFACE_SIDE_STYLE('',(#350));
#332=SURFACE_SIDE_STYLE('',(#351));
#333=SURFACE_SIDE_STYLE('',(#352));
#334=SURFACE_SIDE_STYLE('',(#353));
#335=SURFACE_SIDE_STYLE('',(#354));
#336=SURFACE_SIDE_STYLE('',(#355));
#337=SURFACE_SIDE_STYLE('',(#356));
#338=SURFACE_SIDE_STYLE('',(#357));
#339=SURFACE_SIDE_STYLE('',(#358));
#340=SURFACE_SIDE_STYLE('',(#359));
#341=SURFACE_SIDE_STYLE('',(#360));
#342=SURFACE_SIDE_STYLE('',(#361));
#343=SURFACE_SIDE_STYLE('',(#362));
#344=SURFACE_SIDE_STYLE('',(#363));
#345=SURFACE_STYLE_FILL_AREA(#364);
#346=SURFACE_STYLE_FILL_AREA(#365);
#347=SURFACE_STYLE_FILL_AREA(#366);
#348=SURFACE_STYLE_FILL_AREA(#367);
#349=SURFACE_STYLE_FILL_AREA(#368);
#350=SURFACE_STYLE_FILL_AREA(#369);
#351=SURFACE_STYLE_FILL_AREA(#370);
#352=SURFACE_STYLE_FILL_AREA(#371);
#353=SURFACE_STYLE_FILL_AREA(#372);
#354=SURFACE_STYLE_FILL_AREA(#373);
#355=SURFACE_STYLE_FILL_AREA(#374);
#356=SURFACE_STYLE_FILL_AREA(#375);
#357=SURFACE_STYLE_FILL_AREA(#376);
#358=SURFACE_STYLE_FILL_AREA(#377);
#359=SURFACE_STYLE_FILL_AREA(#378);
#360=SURFACE_STYLE_FILL_AREA(#379);
#361=SURFACE_STYLE_FILL_AREA(#380);
#362=SURFACE_STYLE_FILL_AREA(#381);
#363=SURFACE_STYLE_FILL_AREA(#382);
#364=FILL_AREA_STYLE('',(#383));
#365=FILL_AREA_STYLE('',(#384));
#366=FILL_AREA_STYLE('',(#385));
#367=FILL_AREA_STYLE('',(#386));
#368=FILL_AREA_STYLE('',(#387));
#369=FILL_AREA_STYLE('',(#388));
#370=FILL_AREA_STYLE('',(#389));
#371=FILL_AREA_STYLE('',(#390));
#372=FILL_AREA_STYLE('',(#391));
#373=FILL_AREA_STYLE('',(#392));
#374=FILL_AREA_STYLE('',(#393));
#375=FILL_AREA_STYLE('',(#394));
#376=FILL_AREA_STYLE('',(#395));
#377=FILL_AREA_STYLE('',(#396));
#378=FILL_AREA_STYLE('',(#397));
#379=FILL_AREA_STYLE('',(#398));
#380=FILL_AREA_STYLE('',(#399));
#381=FILL_AREA_STYLE('',(#400));
#382=FILL_AREA_STYLE('',(#401));
#383=FILL_AREA_STYLE_COLOUR('',#402);
#384=FILL_AREA_STYLE_COLOUR('',#402);
#385=FILL_AREA_STYLE_COLOUR('',#402);
#386=FILL_AREA_STYLE_COLOUR('',#402);
#387=FILL_AREA_STYLE_COLOUR('',#402);
#388=FILL_AREA_STYLE_COLOUR('',#403);
#389=FILL_AREA_STYLE_COLOUR('',#403);
#390=FILL_AREA_STYLE_COLOUR('',#403);
#391=FILL_AREA_STYLE_COLOUR('',#404);
#392=FILL_AREA_STYLE_COLOUR('',#404);
#393=FILL_AREA_STYLE_COLOUR('',#404);
#394=FILL_AREA_STYLE_COLOUR('',#404);
#395=FILL_AREA_STYLE_COLOUR('',#404);
#396=FILL_AREA_STYLE_COLOUR('',#402);
#397=FILL_AREA_STYLE_COLOUR('',#402);
#398=FILL_AREA_STYLE_COLOUR('',#402);
#399=FILL_AREA_STYLE_COLOUR('',#402);
#400=FILL_AREA_STYLE_COLOUR('',#404);
#401=FILL_AREA_STYLE_COLOUR('',#404);
#402=COLOUR_RGB('',0.949999988079071,0.949999988079071,0.);
#403=COLOUR_RGB('',0.584313750267029,0.270588248968124,0.898039221763611);
#404=COLOUR_RGB('',0.645180702209473,0.678915679454803,0.699999988079071);
#405=ADVANCED_FACE('',(#230,#231),#260,.T.);
#406=ADVANCED_FACE('',(#232),#261,.F.);
#407=ADVANCED_FACE('',(#233),#262,.F.);
#408=ADVANCED_FACE('',(#234),#263,.F.);
#409=ADVANCED_FACE('',(#235),#264,.F.);
#410=ADVANCED_FACE('',(#236,#237),#265,.F.);
#411=ADVANCED_FACE('',(#238,#239),#15,.T.);
#412=ADVANCED_FACE('',(#240,#241),#266,.T.);
#413=ADVANCED_FACE('',(#242,#243),#267,.T.);
#414=ADVANCED_FACE('',(#244,#245),#16,.T.);
#415=ADVANCED_FACE('',(#246,#247),#12,.T.);
#416=ADVANCED_FACE('',(#248,#249),#13,.F.);
#417=ADVANCED_FACE('',(#250,#251),#17,.F.);
#418=ADVANCED_FACE('',(#252),#18,.T.);
#419=ADVANCED_FACE('',(#253),#19,.T.);
#420=ADVANCED_FACE('',(#254),#20,.T.);
#421=ADVANCED_FACE('',(#255),#21,.T.);
#422=ADVANCED_FACE('',(#256,#257),#268,.F.);
#423=ADVANCED_FACE('',(#258,#259),#14,.F.);
#424=CLOSED_SHELL('',(#405,#406,#407,#408,#409,#410,#411,#412,#413,#414,
#415,#416,#417,#418,#419,#420,#421,#422,#423));
#425=MANIFOLD_SOLID_BREP('',#424);
#426=SHAPE_DEFINITION_REPRESENTATION(#644,#427);
#427=SHAPE_REPRESENTATION('501912_5901015_MicronS',(#428),#639);
#428=AXIS2_PLACEMENT_3D('',#558,#466,#467);
#429=AXIS2_PLACEMENT_3D('',#559,#468,#469);
#430=AXIS2_PLACEMENT_3D('',#560,#470,#471);
#431=AXIS2_PLACEMENT_3D('',#565,#473,#474);
#432=AXIS2_PLACEMENT_3D('',#569,#476,#477);
#433=AXIS2_PLACEMENT_3D('',#573,#479,#480);
#434=AXIS2_PLACEMENT_3D('',#577,#482,#483);
#435=AXIS2_PLACEMENT_3D('',#578,#484,#485);
#436=AXIS2_PLACEMENT_3D('',#584,#489,#490);
#437=AXIS2_PLACEMENT_3D('',#590,#494,#495);
#438=AXIS2_PLACEMENT_3D('',#596,#499,#500);
#439=AXIS2_PLACEMENT_3D('',#602,#504,#505);
#440=AXIS2_PLACEMENT_3D('',#603,#506,#507);
#441=AXIS2_PLACEMENT_3D('',#605,#508,#509);
#442=AXIS2_PLACEMENT_3D('',#606,#510,#511);
#443=AXIS2_PLACEMENT_3D('',#607,#512,#513);
#444=AXIS2_PLACEMENT_3D('',#608,#514,#515);
#445=AXIS2_PLACEMENT_3D('',#609,#516,#517);
#446=AXIS2_PLACEMENT_3D('',#610,#518,#519);
#447=AXIS2_PLACEMENT_3D('',#612,#520,#521);
#448=AXIS2_PLACEMENT_3D('',#613,#522,#523);
#449=AXIS2_PLACEMENT_3D('',#615,#524,#525);
#450=AXIS2_PLACEMENT_3D('',#616,#526,#527);
#451=AXIS2_PLACEMENT_3D('',#618,#528,#529);
#452=AXIS2_PLACEMENT_3D('',#620,#530,#531);
#453=AXIS2_PLACEMENT_3D('',#621,#532,#533);
#454=AXIS2_PLACEMENT_3D('',#623,#534,#535);
#455=AXIS2_PLACEMENT_3D('',#624,#536,#537);
#456=AXIS2_PLACEMENT_3D('',#625,#538,#539);
#457=AXIS2_PLACEMENT_3D('',#627,#540,#541);
#458=AXIS2_PLACEMENT_3D('',#629,#542,#543);
#459=AXIS2_PLACEMENT_3D('',#630,#544,#545);
#460=AXIS2_PLACEMENT_3D('',#631,#546,#547);
#461=AXIS2_PLACEMENT_3D('',#632,#548,#549);
#462=AXIS2_PLACEMENT_3D('',#633,#550,#551);
#463=AXIS2_PLACEMENT_3D('',#634,#552,#553);
#464=AXIS2_PLACEMENT_3D('',#635,#554,#555);
#465=AXIS2_PLACEMENT_3D('',#637,#556,#557);
#466=DIRECTION('',(0.,0.,1.));
#467=DIRECTION('',(1.,0.,0.));
#468=DIRECTION('',(0.,0.,1.));
#469=DIRECTION('',(1.,0.,0.));
#470=DIRECTION('',(0.,0.,1.));
#471=DIRECTION('',(1.,0.,0.));
#472=DIRECTION('',(-8.34001671142696E-17,1.,0.));
#473=DIRECTION('',(0.,0.,1.));
#474=DIRECTION('',(1.,0.,0.));
#475=DIRECTION('',(-1.,0.,0.));
#476=DIRECTION('',(0.,0.,1.));
#477=DIRECTION('',(1.,0.,0.));
#478=DIRECTION('',(8.34001671142696E-17,-1.,0.));
#479=DIRECTION('',(0.,0.,1.));
#480=DIRECTION('',(1.,0.,0.));
#481=DIRECTION('',(1.,3.33600668457078E-16,0.));
#482=DIRECTION('',(0.,0.,1.));
#483=DIRECTION('',(1.,0.,0.));
#484=DIRECTION('',(-1.,-8.34001671142696E-17,0.));
#485=DIRECTION('',(8.34001671142696E-17,-1.,0.));
#486=DIRECTION('',(0.,0.,-1.));
#487=DIRECTION('',(0.,0.,-1.));
#488=DIRECTION('',(-8.34001671142696E-17,1.,0.));
#489=DIRECTION('',(0.,-1.,0.));
#490=DIRECTION('',(0.,0.,-1.));
#491=DIRECTION('',(0.,0.,-1.));
#492=DIRECTION('',(0.,0.,-1.));
#493=DIRECTION('',(-1.,0.,0.));
#494=DIRECTION('',(1.,8.34001671142696E-17,0.));
#495=DIRECTION('',(-8.34001671142696E-17,1.,0.));
#496=DIRECTION('',(0.,0.,-1.));
#497=DIRECTION('',(0.,0.,-1.));
#498=DIRECTION('',(8.34001671142696E-17,-1.,0.));
#499=DIRECTION('',(-3.33600668457078E-16,1.,0.));
#500=DIRECTION('',(-1.,-3.33600668457078E-16,0.));
#501=DIRECTION('',(0.,0.,-1.));
#502=DIRECTION('',(0.,0.,-1.));
#503=DIRECTION('',(1.,3.33600668457078E-16,0.));
#504=DIRECTION('',(0.,0.,-1.));
#505=DIRECTION('',(-1.,0.,0.));
#506=DIRECTION('',(0.,0.,-1.));
#507=DIRECTION('',(1.,0.,0.));
#508=DIRECTION('',(0.,0.,-1.));
#509=DIRECTION('',(-1.,0.,0.));
#510=DIRECTION('',(0.,0.,-1.));
#511=DIRECTION('',(-1.,0.,0.));
#512=DIRECTION('',(0.,0.,-1.));
#513=DIRECTION('',(-1.,0.,0.));
#514=DIRECTION('',(0.,0.,-1.));
#515=DIRECTION('',(-1.,0.,0.));
#516=DIRECTION('',(0.,0.,-1.));
#517=DIRECTION('',(-1.,0.,0.));
#518=DIRECTION('',(0.,0.,-1.));
#519=DIRECTION('',(1.,0.,0.));
#520=DIRECTION('',(0.,0.,-1.));
#521=DIRECTION('',(-1.,0.,0.));
#522=DIRECTION('',(-1.36295301512737E-16,0.,1.));
#523=DIRECTION('',(1.,0.,1.36295301512737E-16));
#524=DIRECTION('',(-1.23327997120226E-16,0.,1.));
#525=DIRECTION('',(1.,0.,1.23327997120226E-16));
#526=DIRECTION('',(-1.23327997120226E-16,0.,1.));
#527=DIRECTION('',(1.,0.,1.23327997120226E-16));
#528=DIRECTION('',(-1.23327997120226E-16,0.,1.));
#529=DIRECTION('',(1.,0.,1.23327997120226E-16));
#530=DIRECTION('',(-1.23327997120226E-16,0.,1.));
#531=DIRECTION('',(1.,0.,1.23327997120226E-16));
#532=DIRECTION('',(-1.23327997120226E-16,0.,1.));
#533=DIRECTION('',(1.,0.,1.23327997120226E-16));
#534=DIRECTION('',(1.23327997120226E-16,0.,-1.));
#535=DIRECTION('',(-1.,0.,-1.23327997120226E-16));
#536=DIRECTION('',(1.23327997120226E-16,0.,-1.));
#537=DIRECTION('',(-1.,0.,-1.23327997120226E-16));
#538=DIRECTION('',(0.,0.,1.));
#539=DIRECTION('',(1.,0.,0.));
#540=DIRECTION('',(-1.23327997120226E-16,0.,1.));
#541=DIRECTION('',(1.,0.,1.23327997120226E-16));
#542=DIRECTION('',(-1.23327997120226E-16,0.,1.));
#543=DIRECTION('',(1.,0.,1.23327997120226E-16));
#544=DIRECTION('',(0.,0.,-1.));
#545=DIRECTION('',(-1.,0.,0.));
#546=DIRECTION('',(0.,0.,-1.));
#547=DIRECTION('',(-1.,0.,0.));
#548=DIRECTION('',(0.,0.,-1.));
#549=DIRECTION('',(-1.,0.,0.));
#550=DIRECTION('',(0.,0.,-1.));
#551=DIRECTION('',(-1.,0.,0.));
#552=DIRECTION('',(-1.36295301512737E-16,0.,1.));
#553=DIRECTION('',(1.,0.,1.36295301512737E-16));
#554=DIRECTION('',(-1.36295301512737E-16,0.,1.));
#555=DIRECTION('',(1.,0.,1.36295301512737E-16));
#556=DIRECTION('',(1.36295301512737E-16,0.,-1.));
#557=DIRECTION('',(-1.,0.,-1.36295301512737E-16));
#558=CARTESIAN_POINT('',(0.,0.,0.));
#559=CARTESIAN_POINT('',(0.,0.,9.6));
#560=CARTESIAN_POINT('',(-1.13820268970144E-15,0.,9.6));
#561=CARTESIAN_POINT('',(2.,0.,9.6));
#562=CARTESIAN_POINT('',(2.6,-2.6,9.6));
#563=CARTESIAN_POINT('',(2.6,-2.11246301742776,9.6));
#564=CARTESIAN_POINT('',(2.6,2.11246301742776,9.6));
#565=CARTESIAN_POINT('',(0.,0.,9.6));
#566=CARTESIAN_POINT('',(2.11246301742776,2.6,9.6));
#567=CARTESIAN_POINT('',(2.6,2.6,9.6));
#568=CARTESIAN_POINT('',(-2.11246301742776,2.6,9.6));
#569=CARTESIAN_POINT('',(0.,0.,9.6));
#570=CARTESIAN_POINT('',(-2.6,2.11246301742776,9.6));
#571=CARTESIAN_POINT('',(-2.6,2.6,9.6));
#572=CARTESIAN_POINT('',(-2.6,-2.11246301742776,9.6));
#573=CARTESIAN_POINT('',(0.,0.,9.6));
#574=CARTESIAN_POINT('',(-2.11246301742776,-2.6,9.6));
#575=CARTESIAN_POINT('',(-2.6,-2.6,9.6));
#576=CARTESIAN_POINT('',(2.11246301742776,-2.6,9.6));
#577=CARTESIAN_POINT('',(0.,0.,9.6));
#578=CARTESIAN_POINT('',(2.6,-2.6,9.6));
#579=CARTESIAN_POINT('',(2.6,2.11246301742776,30.0190450412019));
#580=CARTESIAN_POINT('',(2.6,2.11246301742776,4.2));
#581=CARTESIAN_POINT('',(2.6,-2.11246301742776,30.0190450412019));
#582=CARTESIAN_POINT('',(2.6,-2.11246301742776,4.2));
#583=CARTESIAN_POINT('',(2.6,-2.6,4.2));
#584=CARTESIAN_POINT('',(2.6,2.6,9.6));
#585=CARTESIAN_POINT('',(-2.11246301742776,2.6,30.0190450412019));
#586=CARTESIAN_POINT('',(-2.11246301742776,2.6,4.2));
#587=CARTESIAN_POINT('',(2.11246301742776,2.6,30.0190450412019));
#588=CARTESIAN_POINT('',(2.11246301742776,2.6,4.2));
#589=CARTESIAN_POINT('',(2.6,2.6,4.2));
#590=CARTESIAN_POINT('',(-2.6,2.6,9.6));
#591=CARTESIAN_POINT('',(-2.6,-2.11246301742776,30.0190450412019));
#592=CARTESIAN_POINT('',(-2.6,-2.11246301742776,4.2));
#593=CARTESIAN_POINT('',(-2.6,2.11246301742776,30.0190450412019));
#594=CARTESIAN_POINT('',(-2.6,2.11246301742776,4.2));
#595=CARTESIAN_POINT('',(-2.6,2.6,4.2));
#596=CARTESIAN_POINT('',(-2.6,-2.6,9.6));
#597=CARTESIAN_POINT('',(2.11246301742776,-2.6,30.0190450412019));
#598=CARTESIAN_POINT('',(2.11246301742776,-2.6,4.2));
#599=CARTESIAN_POINT('',(-2.11246301742776,-2.6,30.0190450412019));
#600=CARTESIAN_POINT('',(-2.11246301742776,-2.6,4.2));
#601=CARTESIAN_POINT('',(-2.6,-2.6,4.2));
#602=CARTESIAN_POINT('',(0.,0.,4.2));
#603=CARTESIAN_POINT('',(0.,0.,4.2));
#604=CARTESIAN_POINT('',(3.9,0.,4.2));
#605=CARTESIAN_POINT('',(0.,0.,4.2));
#606=CARTESIAN_POINT('',(0.,0.,4.2));
#607=CARTESIAN_POINT('',(0.,0.,4.2));
#608=CARTESIAN_POINT('',(0.,0.,4.2));
#609=CARTESIAN_POINT('',(0.,0.,4.2));
#610=CARTESIAN_POINT('',(0.,0.,0.));
#611=CARTESIAN_POINT('',(3.9,0.,0.));
#612=CARTESIAN_POINT('',(0.,0.,0.));
#613=CARTESIAN_POINT('',(2.85835118200714E-16,0.,0.));
#614=CARTESIAN_POINT('',(2.15,0.,2.93034898252384E-16));
#615=CARTESIAN_POINT('',(0.304999999999998,0.,19.2));
#616=CARTESIAN_POINT('',(-2.36789754470834E-15,0.,19.2));
#617=CARTESIAN_POINT('',(0.404999999999998,0.,19.2));
#618=CARTESIAN_POINT('',(-2.36789754470834E-15,0.,19.2));
#619=CARTESIAN_POINT('',(0.304999999999998,0.,19.2));
#620=CARTESIAN_POINT('',(0.,0.,0.));
#621=CARTESIAN_POINT('',(-2.24456954758812E-15,0.,18.2));
#622=CARTESIAN_POINT('',(0.404999999999998,0.,18.2));
#623=CARTESIAN_POINT('',(-2.24456954758812E-15,0.,18.2));
#624=CARTESIAN_POINT('',(-1.18394877235417E-15,0.,9.6));
#625=CARTESIAN_POINT('',(-1.14518161999352E-15,0.,9.6));
#626=CARTESIAN_POINT('',(1.69488402558686,0.,9.6));
#627=CARTESIAN_POINT('',(-2.10817439787343E-15,0.,17.09404552981));
#628=CARTESIAN_POINT('',(0.304999999999998,0.,17.09404552981));
#629=CARTESIAN_POINT('',(0.,0.,0.));
#630=CARTESIAN_POINT('',(0.,0.,30.0190450412019));
#631=CARTESIAN_POINT('',(0.,0.,30.0190450412019));
#632=CARTESIAN_POINT('',(0.,0.,30.0190450412019));
#633=CARTESIAN_POINT('',(0.,0.,30.0190450412019));
#634=CARTESIAN_POINT('',(1.69488402558686,0.,9.6));
#635=CARTESIAN_POINT('',(-1.02259977632156E-15,0.,9.6));
#636=CARTESIAN_POINT('',(1.86172463269238,0.,9.6));
#637=CARTESIAN_POINT('',(-1.02259977632156E-15,0.,9.6));
#638=MECHANICAL_DESIGN_GEOMETRIC_PRESENTATION_REPRESENTATION('',(#269,#270,
#271,#272,#273,#274,#275,#276,#277,#278,#279,#280,#281,#282,#283,#284,#285,
#286,#287),#639);
#639=(
GEOMETRIC_REPRESENTATION_CONTEXT(3)
GLOBAL_UNCERTAINTY_ASSIGNED_CONTEXT((#640))
GLOBAL_UNIT_ASSIGNED_CONTEXT((#643,#642,#641))
REPRESENTATION_CONTEXT('501912_5901015_MicronS',
'TOP_LEVEL_ASSEMBLY_PART')
);
#640=UNCERTAINTY_MEASURE_WITH_UNIT(LENGTH_MEASURE(0.005),#643,
'DISTANCE_ACCURACY_VALUE','Maximum Tolerance applied to model');
#641=(
NAMED_UNIT(*)
SI_UNIT($,.STERADIAN.)
SOLID_ANGLE_UNIT()
);
#642=(
NAMED_UNIT(*)
PLANE_ANGLE_UNIT()
SI_UNIT($,.RADIAN.)
);
#643=(
LENGTH_UNIT()
NAMED_UNIT(*)
SI_UNIT(.MILLI.,.METRE.)
);
#644=PRODUCT_DEFINITION_SHAPE('','',#645);
#645=PRODUCT_DEFINITION('','',#647,#646);
#646=PRODUCT_DEFINITION_CONTEXT('',#653,'design');
#647=PRODUCT_DEFINITION_FORMATION_WITH_SPECIFIED_SOURCE('','',#649,
 .NOT_KNOWN.);
#648=PRODUCT_RELATED_PRODUCT_CATEGORY('','',(#649));
#649=PRODUCT('501912_5901015_MicronS','501912_5901015_MicronS',
'501912_5901015_MicronS',(#651));
#650=PRODUCT_CATEGORY('','');
#651=PRODUCT_CONTEXT('',#653,'mechanical');
#652=APPLICATION_PROTOCOL_DEFINITION('international standard',
'ap242_managed_model_based_3d_engineering',2011,#653);
#653=APPLICATION_CONTEXT('managed model based 3d engineering');
ENDSEC;
END-ISO-10303-21;
