ISO-10303-21;
HEADER;
/* Generated by software containing ST-Developer
 * from STEP Tools, Inc. (www.steptools.com) 
 */
/* OPTION: strings as raw bytes, not using required /X/ escapes */

FILE_DESCRIPTION(
/* description */ ('Unknown',
'CAx-IF Rec.Pracs.---Representation and Presentation of Product Manufa
cturing Information (PMI)---4.0---2014-10-13',
'CAx-IF Rec.Pracs.---3D Tessellated Geometry---0.4---2014-09-14','2;1'),

/* implementation_level */ '2;1');

FILE_NAME(
/* name */ '501371_560952-M6',
/* time_stamp */ '2023-09-27T09:06:16+02:00',
/* author */ ('Unknown'),
/* organization */ ('Unknown'),
/* preprocessor_version */ 'ST-DEVELOPER v16.7',
/* originating_system */ 'Solid Edge',
/* authorisation */ 'Unknown');

FILE_SCHEMA (('AP242_MANAGED_MODEL_BASED_3D_ENGINEERING_MIM_LF { 1 0 10303 442 1 1 4 }'));
ENDSEC;

DATA;
#10=SHAPE_REPRESENTATION_RELATIONSHIP('','',#445,#11);
#11=ADVANCED_BREP_SHAPE_REPRESENTATION('',(#443),#664);
#12=CONICAL_SURFACE('',#466,2.26226963048871,0.0300196631343025);
#13=CONICAL_SURFACE('',#476,2.5,0.785398163397448);
#14=VERTEX_LOOP('',#174);
#15=VERTEX_LOOP('',#175);
#16=PLANE('',#461);
#17=PLANE('',#462);
#18=PLANE('',#464);
#19=PLANE('',#468);
#20=PLANE('',#472);
#21=PLANE('',#477);
#22=PLANE('',#478);
#23=PLANE('',#479);
#24=PLANE('',#480);
#25=PLANE('',#481);
#26=PLANE('',#482);
#27=PLANE('',#483);
#28=PLANE('',#484);
#29=CIRCLE('',#448,4.725);
#30=CIRCLE('',#449,4.725);
#31=CIRCLE('',#450,4.725);
#32=CIRCLE('',#451,4.725);
#33=CIRCLE('',#452,4.725);
#34=CIRCLE('',#453,4.725);
#35=CIRCLE('',#455,4.05);
#36=CIRCLE('',#456,4.05);
#37=CIRCLE('',#457,4.05);
#38=CIRCLE('',#458,4.05);
#39=CIRCLE('',#459,4.05);
#40=CIRCLE('',#460,4.05);
#41=CIRCLE('',#463,2.5);
#42=CIRCLE('',#465,2.26226963048871);
#43=CIRCLE('',#467,1.98);
#44=CIRCLE('',#469,1.4);
#45=CIRCLE('',#471,1.4);
#46=CIRCLE('',#473,2.2);
#47=CIRCLE('',#475,2.5);
#48=ORIENTED_EDGE('',*,*,#118,.T.);
#49=ORIENTED_EDGE('',*,*,#119,.F.);
#50=ORIENTED_EDGE('',*,*,#120,.F.);
#51=ORIENTED_EDGE('',*,*,#121,.F.);
#52=ORIENTED_EDGE('',*,*,#122,.F.);
#53=ORIENTED_EDGE('',*,*,#123,.T.);
#54=ORIENTED_EDGE('',*,*,#124,.F.);
#55=ORIENTED_EDGE('',*,*,#125,.T.);
#56=ORIENTED_EDGE('',*,*,#126,.F.);
#57=ORIENTED_EDGE('',*,*,#127,.F.);
#58=ORIENTED_EDGE('',*,*,#128,.T.);
#59=ORIENTED_EDGE('',*,*,#129,.F.);
#60=ORIENTED_EDGE('',*,*,#130,.F.);
#61=ORIENTED_EDGE('',*,*,#131,.T.);
#62=ORIENTED_EDGE('',*,*,#132,.F.);
#63=ORIENTED_EDGE('',*,*,#133,.F.);
#64=ORIENTED_EDGE('',*,*,#134,.T.);
#65=ORIENTED_EDGE('',*,*,#135,.F.);
#66=ORIENTED_EDGE('',*,*,#136,.F.);
#67=ORIENTED_EDGE('',*,*,#137,.F.);
#68=ORIENTED_EDGE('',*,*,#122,.T.);
#69=ORIENTED_EDGE('',*,*,#128,.F.);
#70=ORIENTED_EDGE('',*,*,#123,.F.);
#71=ORIENTED_EDGE('',*,*,#138,.T.);
#72=ORIENTED_EDGE('',*,*,#129,.T.);
#73=ORIENTED_EDGE('',*,*,#139,.F.);
#74=ORIENTED_EDGE('',*,*,#140,.F.);
#75=ORIENTED_EDGE('',*,*,#139,.T.);
#76=ORIENTED_EDGE('',*,*,#141,.F.);
#77=ORIENTED_EDGE('',*,*,#140,.T.);
#78=ORIENTED_EDGE('',*,*,#142,.F.);
#79=ORIENTED_EDGE('',*,*,#141,.T.);
#80=ORIENTED_EDGE('',*,*,#143,.T.);
#81=ORIENTED_EDGE('',*,*,#142,.T.);
#82=ORIENTED_EDGE('',*,*,#144,.T.);
#83=ORIENTED_EDGE('',*,*,#138,.F.);
#84=ORIENTED_EDGE('',*,*,#143,.F.);
#85=ORIENTED_EDGE('',*,*,#144,.F.);
#86=ORIENTED_EDGE('',*,*,#119,.T.);
#87=ORIENTED_EDGE('',*,*,#145,.T.);
#88=ORIENTED_EDGE('',*,*,#130,.T.);
#89=ORIENTED_EDGE('',*,*,#146,.F.);
#90=ORIENTED_EDGE('',*,*,#121,.T.);
#91=ORIENTED_EDGE('',*,*,#147,.T.);
#92=ORIENTED_EDGE('',*,*,#132,.T.);
#93=ORIENTED_EDGE('',*,*,#148,.F.);
#94=ORIENTED_EDGE('',*,*,#120,.T.);
#95=ORIENTED_EDGE('',*,*,#146,.T.);
#96=ORIENTED_EDGE('',*,*,#133,.T.);
#97=ORIENTED_EDGE('',*,*,#147,.F.);
#98=ORIENTED_EDGE('',*,*,#148,.T.);
#99=ORIENTED_EDGE('',*,*,#131,.F.);
#100=ORIENTED_EDGE('',*,*,#145,.F.);
#101=ORIENTED_EDGE('',*,*,#118,.F.);
#102=ORIENTED_EDGE('',*,*,#124,.T.);
#103=ORIENTED_EDGE('',*,*,#149,.T.);
#104=ORIENTED_EDGE('',*,*,#135,.T.);
#105=ORIENTED_EDGE('',*,*,#150,.F.);
#106=ORIENTED_EDGE('',*,*,#127,.T.);
#107=ORIENTED_EDGE('',*,*,#151,.T.);
#108=ORIENTED_EDGE('',*,*,#136,.T.);
#109=ORIENTED_EDGE('',*,*,#149,.F.);
#110=ORIENTED_EDGE('',*,*,#126,.T.);
#111=ORIENTED_EDGE('',*,*,#152,.T.);
#112=ORIENTED_EDGE('',*,*,#137,.T.);
#113=ORIENTED_EDGE('',*,*,#151,.F.);
#114=ORIENTED_EDGE('',*,*,#150,.T.);
#115=ORIENTED_EDGE('',*,*,#134,.F.);
#116=ORIENTED_EDGE('',*,*,#152,.F.);
#117=ORIENTED_EDGE('',*,*,#125,.F.);
#118=EDGE_CURVE('',#153,#154,#182,.F.);
#119=EDGE_CURVE('',#155,#154,#29,.T.);
#120=EDGE_CURVE('',#156,#155,#183,.F.);
#121=EDGE_CURVE('',#153,#156,#30,.T.);
#122=EDGE_CURVE('',#157,#157,#31,.T.);
#123=EDGE_CURVE('',#158,#158,#32,.T.);
#124=EDGE_CURVE('',#159,#160,#33,.T.);
#125=EDGE_CURVE('',#159,#161,#184,.T.);
#126=EDGE_CURVE('',#162,#161,#34,.T.);
#127=EDGE_CURVE('',#160,#162,#185,.T.);
#128=EDGE_CURVE('',#163,#163,#35,.F.);
#129=EDGE_CURVE('',#164,#164,#36,.T.);
#130=EDGE_CURVE('',#165,#166,#37,.F.);
#131=EDGE_CURVE('',#165,#167,#186,.T.);
#132=EDGE_CURVE('',#168,#167,#38,.F.);
#133=EDGE_CURVE('',#166,#168,#187,.T.);
#134=EDGE_CURVE('',#169,#170,#188,.F.);
#135=EDGE_CURVE('',#171,#170,#39,.F.);
#136=EDGE_CURVE('',#172,#171,#189,.F.);
#137=EDGE_CURVE('',#169,#172,#40,.F.);
#138=EDGE_CURVE('',#173,#173,#41,.T.);
#139=EDGE_CURVE('',#176,#176,#42,.T.);
#140=EDGE_CURVE('',#177,#177,#43,.T.);
#141=EDGE_CURVE('',#178,#178,#44,.T.);
#142=EDGE_CURVE('',#179,#179,#45,.T.);
#143=EDGE_CURVE('',#180,#180,#46,.F.);
#144=EDGE_CURVE('',#181,#181,#47,.T.);
#145=EDGE_CURVE('',#154,#165,#190,.T.);
#146=EDGE_CURVE('',#155,#166,#191,.T.);
#147=EDGE_CURVE('',#156,#168,#192,.T.);
#148=EDGE_CURVE('',#153,#167,#193,.T.);
#149=EDGE_CURVE('',#160,#171,#194,.T.);
#150=EDGE_CURVE('',#159,#170,#195,.T.);
#151=EDGE_CURVE('',#162,#172,#196,.T.);
#152=EDGE_CURVE('',#161,#169,#197,.T.);
#153=VERTEX_POINT('',#582);
#154=VERTEX_POINT('',#583);
#155=VERTEX_POINT('',#585);
#156=VERTEX_POINT('',#587);
#157=VERTEX_POINT('',#590);
#158=VERTEX_POINT('',#592);
#159=VERTEX_POINT('',#594);
#160=VERTEX_POINT('',#595);
#161=VERTEX_POINT('',#597);
#162=VERTEX_POINT('',#599);
#163=VERTEX_POINT('',#603);
#164=VERTEX_POINT('',#605);
#165=VERTEX_POINT('',#607);
#166=VERTEX_POINT('',#608);
#167=VERTEX_POINT('',#610);
#168=VERTEX_POINT('',#612);
#169=VERTEX_POINT('',#615);
#170=VERTEX_POINT('',#616);
#171=VERTEX_POINT('',#618);
#172=VERTEX_POINT('',#620);
#173=VERTEX_POINT('',#625);
#174=VERTEX_POINT('',#627);
#175=VERTEX_POINT('',#628);
#176=VERTEX_POINT('',#630);
#177=VERTEX_POINT('',#633);
#178=VERTEX_POINT('',#636);
#179=VERTEX_POINT('',#639);
#180=VERTEX_POINT('',#642);
#181=VERTEX_POINT('',#645);
#182=LINE('',#581,#198);
#183=LINE('',#586,#199);
#184=LINE('',#596,#200);
#185=LINE('',#600,#201);
#186=LINE('',#609,#202);
#187=LINE('',#613,#203);
#188=LINE('',#614,#204);
#189=LINE('',#619,#205);
#190=LINE('',#648,#206);
#191=LINE('',#649,#207);
#192=LINE('',#651,#208);
#193=LINE('',#652,#209);
#194=LINE('',#656,#210);
#195=LINE('',#657,#211);
#196=LINE('',#659,#212);
#197=LINE('',#661,#213);
#198=VECTOR('',#489,1000.);
#199=VECTOR('',#492,1000.);
#200=VECTOR('',#501,1000.);
#201=VECTOR('',#504,1000.);
#202=VECTOR('',#513,1000.);
#203=VECTOR('',#516,1000.);
#204=VECTOR('',#517,1000.);
#205=VECTOR('',#520,1000.);
#206=VECTOR('',#557,1000.);
#207=VECTOR('',#558,1000.);
#208=VECTOR('',#561,1000.);
#209=VECTOR('',#562,1000.);
#210=VECTOR('',#569,1000.);
#211=VECTOR('',#570,1000.);
#212=VECTOR('',#573,1000.);
#213=VECTOR('',#576,1000.);
#214=EDGE_LOOP('',(#48,#49,#50,#51));
#215=EDGE_LOOP('',(#52));
#216=EDGE_LOOP('',(#53));
#217=EDGE_LOOP('',(#54,#55,#56,#57));
#218=EDGE_LOOP('',(#58));
#219=EDGE_LOOP('',(#59));
#220=EDGE_LOOP('',(#60,#61,#62,#63));
#221=EDGE_LOOP('',(#64,#65,#66,#67));
#222=EDGE_LOOP('',(#68));
#223=EDGE_LOOP('',(#69));
#224=EDGE_LOOP('',(#70));
#225=EDGE_LOOP('',(#71));
#226=EDGE_LOOP('',(#72));
#227=EDGE_LOOP('',(#73));
#228=EDGE_LOOP('',(#74));
#229=EDGE_LOOP('',(#75));
#230=EDGE_LOOP('',(#76));
#231=EDGE_LOOP('',(#77));
#232=EDGE_LOOP('',(#78));
#233=EDGE_LOOP('',(#79));
#234=EDGE_LOOP('',(#80));
#235=EDGE_LOOP('',(#81));
#236=EDGE_LOOP('',(#82));
#237=EDGE_LOOP('',(#83));
#238=EDGE_LOOP('',(#84));
#239=EDGE_LOOP('',(#85));
#240=EDGE_LOOP('',(#86,#87,#88,#89));
#241=EDGE_LOOP('',(#90,#91,#92,#93));
#242=EDGE_LOOP('',(#94,#95,#96,#97));
#243=EDGE_LOOP('',(#98,#99,#100,#101));
#244=EDGE_LOOP('',(#102,#103,#104,#105));
#245=EDGE_LOOP('',(#106,#107,#108,#109));
#246=EDGE_LOOP('',(#110,#111,#112,#113));
#247=EDGE_LOOP('',(#114,#115,#116,#117));
#248=FACE_BOUND('',#214,.T.);
#249=FACE_BOUND('',#215,.T.);
#250=FACE_BOUND('',#216,.T.);
#251=FACE_BOUND('',#217,.T.);
#252=FACE_BOUND('',#218,.T.);
#253=FACE_BOUND('',#219,.T.);
#254=FACE_BOUND('',#220,.T.);
#255=FACE_BOUND('',#221,.T.);
#256=FACE_BOUND('',#222,.T.);
#257=FACE_BOUND('',#223,.T.);
#258=FACE_BOUND('',#224,.T.);
#259=FACE_BOUND('',#225,.T.);
#260=FACE_BOUND('',#14,.T.);
#261=FACE_BOUND('',#15,.T.);
#262=FACE_BOUND('',#226,.T.);
#263=FACE_BOUND('',#227,.T.);
#264=FACE_BOUND('',#228,.T.);
#265=FACE_BOUND('',#229,.T.);
#266=FACE_BOUND('',#230,.T.);
#267=FACE_BOUND('',#231,.T.);
#268=FACE_BOUND('',#232,.T.);
#269=FACE_BOUND('',#233,.T.);
#270=FACE_BOUND('',#234,.T.);
#271=FACE_BOUND('',#235,.T.);
#272=FACE_BOUND('',#236,.T.);
#273=FACE_BOUND('',#237,.T.);
#274=FACE_BOUND('',#238,.T.);
#275=FACE_BOUND('',#239,.T.);
#276=FACE_BOUND('',#240,.T.);
#277=FACE_BOUND('',#241,.T.);
#278=FACE_BOUND('',#242,.T.);
#279=FACE_BOUND('',#243,.T.);
#280=FACE_BOUND('',#244,.T.);
#281=FACE_BOUND('',#245,.T.);
#282=FACE_BOUND('',#246,.T.);
#283=FACE_BOUND('',#247,.T.);
#284=CYLINDRICAL_SURFACE('',#447,4.725);
#285=CYLINDRICAL_SURFACE('',#454,4.05);
#286=CYLINDRICAL_SURFACE('',#470,1.4);
#287=CYLINDRICAL_SURFACE('',#474,2.5);
#288=STYLED_ITEM('',(#307),#423);
#289=STYLED_ITEM('',(#308),#424);
#290=STYLED_ITEM('',(#309),#425);
#291=STYLED_ITEM('',(#310),#426);
#292=STYLED_ITEM('',(#311),#427);
#293=STYLED_ITEM('',(#312),#428);
#294=STYLED_ITEM('',(#313),#429);
#295=STYLED_ITEM('',(#314),#430);
#296=STYLED_ITEM('',(#315),#431);
#297=STYLED_ITEM('',(#316),#432);
#298=STYLED_ITEM('',(#317),#433);
#299=STYLED_ITEM('',(#318),#434);
#300=STYLED_ITEM('',(#319),#435);
#301=STYLED_ITEM('',(#320),#436);
#302=STYLED_ITEM('',(#321),#437);
#303=STYLED_ITEM('',(#322),#438);
#304=STYLED_ITEM('',(#323),#439);
#305=STYLED_ITEM('',(#324),#440);
#306=STYLED_ITEM('',(#325),#441);
#307=PRESENTATION_STYLE_ASSIGNMENT((#326));
#308=PRESENTATION_STYLE_ASSIGNMENT((#327));
#309=PRESENTATION_STYLE_ASSIGNMENT((#328));
#310=PRESENTATION_STYLE_ASSIGNMENT((#329));
#311=PRESENTATION_STYLE_ASSIGNMENT((#330));
#312=PRESENTATION_STYLE_ASSIGNMENT((#331));
#313=PRESENTATION_STYLE_ASSIGNMENT((#332));
#314=PRESENTATION_STYLE_ASSIGNMENT((#333));
#315=PRESENTATION_STYLE_ASSIGNMENT((#334));
#316=PRESENTATION_STYLE_ASSIGNMENT((#335));
#317=PRESENTATION_STYLE_ASSIGNMENT((#336));
#318=PRESENTATION_STYLE_ASSIGNMENT((#337));
#319=PRESENTATION_STYLE_ASSIGNMENT((#338));
#320=PRESENTATION_STYLE_ASSIGNMENT((#339));
#321=PRESENTATION_STYLE_ASSIGNMENT((#340));
#322=PRESENTATION_STYLE_ASSIGNMENT((#341));
#323=PRESENTATION_STYLE_ASSIGNMENT((#342));
#324=PRESENTATION_STYLE_ASSIGNMENT((#343));
#325=PRESENTATION_STYLE_ASSIGNMENT((#344));
#326=SURFACE_STYLE_USAGE(.BOTH.,#345);
#327=SURFACE_STYLE_USAGE(.BOTH.,#346);
#328=SURFACE_STYLE_USAGE(.BOTH.,#347);
#329=SURFACE_STYLE_USAGE(.BOTH.,#348);
#330=SURFACE_STYLE_USAGE(.BOTH.,#349);
#331=SURFACE_STYLE_USAGE(.BOTH.,#350);
#332=SURFACE_STYLE_USAGE(.BOTH.,#351);
#333=SURFACE_STYLE_USAGE(.BOTH.,#352);
#334=SURFACE_STYLE_USAGE(.BOTH.,#353);
#335=SURFACE_STYLE_USAGE(.BOTH.,#354);
#336=SURFACE_STYLE_USAGE(.BOTH.,#355);
#337=SURFACE_STYLE_USAGE(.BOTH.,#356);
#338=SURFACE_STYLE_USAGE(.BOTH.,#357);
#339=SURFACE_STYLE_USAGE(.BOTH.,#358);
#340=SURFACE_STYLE_USAGE(.BOTH.,#359);
#341=SURFACE_STYLE_USAGE(.BOTH.,#360);
#342=SURFACE_STYLE_USAGE(.BOTH.,#361);
#343=SURFACE_STYLE_USAGE(.BOTH.,#362);
#344=SURFACE_STYLE_USAGE(.BOTH.,#363);
#345=SURFACE_SIDE_STYLE('',(#364));
#346=SURFACE_SIDE_STYLE('',(#365));
#347=SURFACE_SIDE_STYLE('',(#366));
#348=SURFACE_SIDE_STYLE('',(#367));
#349=SURFACE_SIDE_STYLE('',(#368));
#350=SURFACE_SIDE_STYLE('',(#369));
#351=SURFACE_SIDE_STYLE('',(#370));
#352=SURFACE_SIDE_STYLE('',(#371));
#353=SURFACE_SIDE_STYLE('',(#372));
#354=SURFACE_SIDE_STYLE('',(#373));
#355=SURFACE_SIDE_STYLE('',(#374));
#356=SURFACE_SIDE_STYLE('',(#375));
#357=SURFACE_SIDE_STYLE('',(#376));
#358=SURFACE_SIDE_STYLE('',(#377));
#359=SURFACE_SIDE_STYLE('',(#378));
#360=SURFACE_SIDE_STYLE('',(#379));
#361=SURFACE_SIDE_STYLE('',(#380));
#362=SURFACE_SIDE_STYLE('',(#381));
#363=SURFACE_SIDE_STYLE('',(#382));
#364=SURFACE_STYLE_FILL_AREA(#383);
#365=SURFACE_STYLE_FILL_AREA(#384);
#366=SURFACE_STYLE_FILL_AREA(#385);
#367=SURFACE_STYLE_FILL_AREA(#386);
#368=SURFACE_STYLE_FILL_AREA(#387);
#369=SURFACE_STYLE_FILL_AREA(#388);
#370=SURFACE_STYLE_FILL_AREA(#389);
#371=SURFACE_STYLE_FILL_AREA(#390);
#372=SURFACE_STYLE_FILL_AREA(#391);
#373=SURFACE_STYLE_FILL_AREA(#392);
#374=SURFACE_STYLE_FILL_AREA(#393);
#375=SURFACE_STYLE_FILL_AREA(#394);
#376=SURFACE_STYLE_FILL_AREA(#395);
#377=SURFACE_STYLE_FILL_AREA(#396);
#378=SURFACE_STYLE_FILL_AREA(#397);
#379=SURFACE_STYLE_FILL_AREA(#398);
#380=SURFACE_STYLE_FILL_AREA(#399);
#381=SURFACE_STYLE_FILL_AREA(#400);
#382=SURFACE_STYLE_FILL_AREA(#401);
#383=FILL_AREA_STYLE('',(#402));
#384=FILL_AREA_STYLE('',(#403));
#385=FILL_AREA_STYLE('',(#404));
#386=FILL_AREA_STYLE('',(#405));
#387=FILL_AREA_STYLE('',(#406));
#388=FILL_AREA_STYLE('',(#407));
#389=FILL_AREA_STYLE('',(#408));
#390=FILL_AREA_STYLE('',(#409));
#391=FILL_AREA_STYLE('',(#410));
#392=FILL_AREA_STYLE('',(#411));
#393=FILL_AREA_STYLE('',(#412));
#394=FILL_AREA_STYLE('',(#413));
#395=FILL_AREA_STYLE('',(#414));
#396=FILL_AREA_STYLE('',(#415));
#397=FILL_AREA_STYLE('',(#416));
#398=FILL_AREA_STYLE('',(#417));
#399=FILL_AREA_STYLE('',(#418));
#400=FILL_AREA_STYLE('',(#419));
#401=FILL_AREA_STYLE('',(#420));
#402=FILL_AREA_STYLE_COLOUR('',#421);
#403=FILL_AREA_STYLE_COLOUR('',#421);
#404=FILL_AREA_STYLE_COLOUR('',#421);
#405=FILL_AREA_STYLE_COLOUR('',#421);
#406=FILL_AREA_STYLE_COLOUR('',#421);
#407=FILL_AREA_STYLE_COLOUR('',#421);
#408=FILL_AREA_STYLE_COLOUR('',#421);
#409=FILL_AREA_STYLE_COLOUR('',#421);
#410=FILL_AREA_STYLE_COLOUR('',#421);
#411=FILL_AREA_STYLE_COLOUR('',#422);
#412=FILL_AREA_STYLE_COLOUR('',#421);
#413=FILL_AREA_STYLE_COLOUR('',#421);
#414=FILL_AREA_STYLE_COLOUR('',#421);
#415=FILL_AREA_STYLE_COLOUR('',#421);
#416=FILL_AREA_STYLE_COLOUR('',#421);
#417=FILL_AREA_STYLE_COLOUR('',#421);
#418=FILL_AREA_STYLE_COLOUR('',#421);
#419=FILL_AREA_STYLE_COLOUR('',#421);
#420=FILL_AREA_STYLE_COLOUR('',#421);
#421=COLOUR_RGB('',0.752941191196442,0.752941191196442,0.752941191196442);
#422=COLOUR_RGB('',0.396078497171402,0.941176474094391,0.450980395078659);
#423=ADVANCED_FACE('',(#248,#249,#250,#251),#284,.T.);
#424=ADVANCED_FACE('',(#252,#253,#254,#255),#285,.F.);
#425=ADVANCED_FACE('',(#256,#257),#16,.F.);
#426=ADVANCED_FACE('',(#258,#259),#17,.F.);
#427=ADVANCED_FACE('',(#260,#261,#262,#263),#18,.F.);
#428=ADVANCED_FACE('',(#264,#265),#12,.T.);
#429=ADVANCED_FACE('',(#266,#267),#19,.F.);
#430=ADVANCED_FACE('',(#268,#269),#286,.F.);
#431=ADVANCED_FACE('',(#270,#271),#20,.F.);
#432=ADVANCED_FACE('',(#272,#273),#287,.T.);
#433=ADVANCED_FACE('',(#274,#275),#13,.T.);
#434=ADVANCED_FACE('',(#276),#21,.T.);
#435=ADVANCED_FACE('',(#277),#22,.T.);
#436=ADVANCED_FACE('',(#278),#23,.T.);
#437=ADVANCED_FACE('',(#279),#24,.F.);
#438=ADVANCED_FACE('',(#280),#25,.T.);
#439=ADVANCED_FACE('',(#281),#26,.T.);
#440=ADVANCED_FACE('',(#282),#27,.T.);
#441=ADVANCED_FACE('',(#283),#28,.F.);
#442=CLOSED_SHELL('',(#423,#424,#425,#426,#427,#428,#429,#430,#431,#432,
#433,#434,#435,#436,#437,#438,#439,#440,#441));
#443=MANIFOLD_SOLID_BREP('',#442);
#444=SHAPE_DEFINITION_REPRESENTATION(#669,#445);
#445=SHAPE_REPRESENTATION('501371_560952-M6',(#446),#664);
#446=AXIS2_PLACEMENT_3D('',#579,#485,#486);
#447=AXIS2_PLACEMENT_3D('',#580,#487,#488);
#448=AXIS2_PLACEMENT_3D('',#584,#490,#491);
#449=AXIS2_PLACEMENT_3D('',#588,#493,#494);
#450=AXIS2_PLACEMENT_3D('',#589,#495,#496);
#451=AXIS2_PLACEMENT_3D('',#591,#497,#498);
#452=AXIS2_PLACEMENT_3D('',#593,#499,#500);
#453=AXIS2_PLACEMENT_3D('',#598,#502,#503);
#454=AXIS2_PLACEMENT_3D('',#601,#505,#506);
#455=AXIS2_PLACEMENT_3D('',#602,#507,#508);
#456=AXIS2_PLACEMENT_3D('',#604,#509,#510);
#457=AXIS2_PLACEMENT_3D('',#606,#511,#512);
#458=AXIS2_PLACEMENT_3D('',#611,#514,#515);
#459=AXIS2_PLACEMENT_3D('',#617,#518,#519);
#460=AXIS2_PLACEMENT_3D('',#621,#521,#522);
#461=AXIS2_PLACEMENT_3D('',#622,#523,#524);
#462=AXIS2_PLACEMENT_3D('',#623,#525,#526);
#463=AXIS2_PLACEMENT_3D('',#624,#527,#528);
#464=AXIS2_PLACEMENT_3D('',#626,#529,#530);
#465=AXIS2_PLACEMENT_3D('',#629,#531,#532);
#466=AXIS2_PLACEMENT_3D('',#631,#533,#534);
#467=AXIS2_PLACEMENT_3D('',#632,#535,#536);
#468=AXIS2_PLACEMENT_3D('',#634,#537,#538);
#469=AXIS2_PLACEMENT_3D('',#635,#539,#540);
#470=AXIS2_PLACEMENT_3D('',#637,#541,#542);
#471=AXIS2_PLACEMENT_3D('',#638,#543,#544);
#472=AXIS2_PLACEMENT_3D('',#640,#545,#546);
#473=AXIS2_PLACEMENT_3D('',#641,#547,#548);
#474=AXIS2_PLACEMENT_3D('',#643,#549,#550);
#475=AXIS2_PLACEMENT_3D('',#644,#551,#552);
#476=AXIS2_PLACEMENT_3D('',#646,#553,#554);
#477=AXIS2_PLACEMENT_3D('',#647,#555,#556);
#478=AXIS2_PLACEMENT_3D('',#650,#559,#560);
#479=AXIS2_PLACEMENT_3D('',#653,#563,#564);
#480=AXIS2_PLACEMENT_3D('',#654,#565,#566);
#481=AXIS2_PLACEMENT_3D('',#655,#567,#568);
#482=AXIS2_PLACEMENT_3D('',#658,#571,#572);
#483=AXIS2_PLACEMENT_3D('',#660,#574,#575);
#484=AXIS2_PLACEMENT_3D('',#662,#577,#578);
#485=DIRECTION('',(0.,0.,1.));
#486=DIRECTION('',(1.,0.,0.));
#487=DIRECTION('',(-1.,0.,0.));
#488=DIRECTION('',(0.,0.,1.));
#489=DIRECTION('',(-1.,0.,0.));
#490=DIRECTION('',(-1.,0.,0.));
#491=DIRECTION('',(0.,0.,1.));
#492=DIRECTION('',(-1.,0.,0.));
#493=DIRECTION('',(1.,1.44560289664734E-16,0.));
#494=DIRECTION('',(-1.44560289664734E-16,1.,0.));
#495=DIRECTION('',(-1.,0.,0.));
#496=DIRECTION('',(0.,0.,1.));
#497=DIRECTION('',(-1.,0.,0.));
#498=DIRECTION('',(0.,0.,1.));
#499=DIRECTION('',(-1.,0.,0.));
#500=DIRECTION('',(0.,0.,1.));
#501=DIRECTION('',(-1.,0.,0.));
#502=DIRECTION('',(1.,-1.44560289664734E-16,0.));
#503=DIRECTION('',(1.44560289664734E-16,1.,0.));
#504=DIRECTION('',(-1.,0.,0.));
#505=DIRECTION('',(-1.,0.,0.));
#506=DIRECTION('',(0.,0.,1.));
#507=DIRECTION('',(1.,0.,0.));
#508=DIRECTION('',(0.,0.,-1.));
#509=DIRECTION('',(-1.,0.,0.));
#510=DIRECTION('',(0.,0.,1.));
#511=DIRECTION('',(-1.,0.,0.));
#512=DIRECTION('',(0.,0.,1.));
#513=DIRECTION('',(-1.,0.,0.));
#514=DIRECTION('',(1.,1.44560289664734E-16,0.));
#515=DIRECTION('',(-1.44560289664734E-16,1.,0.));
#516=DIRECTION('',(-1.,0.,0.));
#517=DIRECTION('',(-1.,0.,0.));
#518=DIRECTION('',(-1.,0.,0.));
#519=DIRECTION('',(0.,0.,1.));
#520=DIRECTION('',(-1.,0.,0.));
#521=DIRECTION('',(1.,-1.44560289664734E-16,0.));
#522=DIRECTION('',(1.44560289664734E-16,1.,0.));
#523=DIRECTION('',(1.,0.,0.));
#524=DIRECTION('',(0.,0.,-1.));
#525=DIRECTION('',(-1.,0.,0.));
#526=DIRECTION('',(0.,0.,1.));
#527=DIRECTION('',(-1.,0.,0.));
#528=DIRECTION('',(0.,0.,1.));
#529=DIRECTION('',(1.,0.,0.));
#530=DIRECTION('',(0.,0.,-1.));
#531=DIRECTION('',(-1.,0.,0.));
#532=DIRECTION('',(0.,0.,1.));
#533=DIRECTION('',(1.,0.,0.));
#534=DIRECTION('',(0.,0.,-1.));
#535=DIRECTION('',(-1.,0.,0.));
#536=DIRECTION('',(0.,0.,1.));
#537=DIRECTION('',(1.,0.,0.));
#538=DIRECTION('',(0.,0.,-1.));
#539=DIRECTION('',(-1.,0.,0.));
#540=DIRECTION('',(0.,0.,1.));
#541=DIRECTION('',(-1.,0.,0.));
#542=DIRECTION('',(0.,0.,1.));
#543=DIRECTION('',(-1.,0.,0.));
#544=DIRECTION('',(0.,0.,1.));
#545=DIRECTION('',(-1.,0.,0.));
#546=DIRECTION('',(0.,0.,1.));
#547=DIRECTION('',(-1.,0.,0.));
#548=DIRECTION('',(0.,0.,1.));
#549=DIRECTION('',(-1.,0.,0.));
#550=DIRECTION('',(0.,0.,1.));
#551=DIRECTION('',(-1.,0.,0.));
#552=DIRECTION('',(0.,0.,1.));
#553=DIRECTION('',(-1.,0.,0.));
#554=DIRECTION('',(0.,0.,1.));
#555=DIRECTION('',(-1.,0.,0.));
#556=DIRECTION('',(0.,0.,1.));
#557=DIRECTION('',(0.,0.,1.));
#558=DIRECTION('',(0.,0.,-1.));
#559=DIRECTION('',(1.,1.44560289664734E-16,0.));
#560=DIRECTION('',(-1.44560289664734E-16,1.,0.));
#561=DIRECTION('',(0.,0.,-1.));
#562=DIRECTION('',(0.,0.,1.));
#563=DIRECTION('',(0.,1.,0.));
#564=DIRECTION('',(0.,0.,1.));
#565=DIRECTION('',(0.,-1.,0.));
#566=DIRECTION('',(0.,0.,-1.));
#567=DIRECTION('',(-1.,0.,0.));
#568=DIRECTION('',(0.,0.,1.));
#569=DIRECTION('',(0.,0.,-1.));
#570=DIRECTION('',(0.,0.,1.));
#571=DIRECTION('',(0.,-1.,0.));
#572=DIRECTION('',(0.,0.,-1.));
#573=DIRECTION('',(0.,0.,-1.));
#574=DIRECTION('',(1.,-1.44560289664734E-16,0.));
#575=DIRECTION('',(1.44560289664734E-16,1.,0.));
#576=DIRECTION('',(0.,0.,1.));
#577=DIRECTION('',(0.,1.,0.));
#578=DIRECTION('',(0.,0.,1.));
#579=CARTESIAN_POINT('',(0.,0.,0.));
#580=CARTESIAN_POINT('',(0.,0.,0.));
#581=CARTESIAN_POINT('',(0.,2.8,-3.80599855491302));
#582=CARTESIAN_POINT('',(-3.35,2.8,-3.80599855491302));
#583=CARTESIAN_POINT('',(-1.55,2.8,-3.80599855491302));
#584=CARTESIAN_POINT('',(-1.55,0.,0.));
#585=CARTESIAN_POINT('',(-1.55,2.8,3.80599855491302));
#586=CARTESIAN_POINT('',(0.,2.8,3.80599855491302));
#587=CARTESIAN_POINT('',(-3.35,2.8,3.80599855491302));
#588=CARTESIAN_POINT('',(-3.35,0.,0.));
#589=CARTESIAN_POINT('',(-8.,0.,0.));
#590=CARTESIAN_POINT('',(-8.,0.,4.725));
#591=CARTESIAN_POINT('',(0.,0.,0.));
#592=CARTESIAN_POINT('',(0.,0.,4.725));
#593=CARTESIAN_POINT('',(-1.55,0.,0.));
#594=CARTESIAN_POINT('',(-1.55,-2.8,-3.80599855491302));
#595=CARTESIAN_POINT('',(-1.55,-2.8,3.80599855491302));
#596=CARTESIAN_POINT('',(0.,-2.8,-3.80599855491302));
#597=CARTESIAN_POINT('',(-3.35,-2.8,-3.80599855491302));
#598=CARTESIAN_POINT('',(-3.35,0.,0.));
#599=CARTESIAN_POINT('',(-3.35,-2.8,3.80599855491302));
#600=CARTESIAN_POINT('',(0.,-2.8,3.80599855491302));
#601=CARTESIAN_POINT('',(0.,0.,0.));
#602=CARTESIAN_POINT('',(-8.,0.,0.));
#603=CARTESIAN_POINT('',(-8.,0.,-4.05));
#604=CARTESIAN_POINT('',(-1.,0.,0.));
#605=CARTESIAN_POINT('',(-1.,0.,4.05));
#606=CARTESIAN_POINT('',(-1.55,0.,0.));
#607=CARTESIAN_POINT('',(-1.55,2.8,-2.92617497767991));
#608=CARTESIAN_POINT('',(-1.55,2.8,2.92617497767991));
#609=CARTESIAN_POINT('',(0.,2.8,-2.92617497767991));
#610=CARTESIAN_POINT('',(-3.35,2.8,-2.92617497767991));
#611=CARTESIAN_POINT('',(-3.35,0.,0.));
#612=CARTESIAN_POINT('',(-3.35,2.8,2.92617497767991));
#613=CARTESIAN_POINT('',(0.,2.8,2.92617497767991));
#614=CARTESIAN_POINT('',(0.,-2.8,-2.92617497767991));
#615=CARTESIAN_POINT('',(-3.35,-2.8,-2.92617497767991));
#616=CARTESIAN_POINT('',(-1.55,-2.8,-2.92617497767991));
#617=CARTESIAN_POINT('',(-1.55,0.,0.));
#618=CARTESIAN_POINT('',(-1.55,-2.8,2.92617497767991));
#619=CARTESIAN_POINT('',(0.,-2.8,2.92617497767991));
#620=CARTESIAN_POINT('',(-3.35,-2.8,2.92617497767991));
#621=CARTESIAN_POINT('',(-3.35,0.,0.));
#622=CARTESIAN_POINT('',(-8.,0.,4.725));
#623=CARTESIAN_POINT('',(0.,0.,2.5));
#624=CARTESIAN_POINT('',(0.,0.,0.));
#625=CARTESIAN_POINT('',(0.,0.,2.5));
#626=CARTESIAN_POINT('',(-1.,0.,2.26226963048871));
#627=CARTESIAN_POINT('',(-0.999999999999999,0.,-3.45));
#628=CARTESIAN_POINT('',(-0.999999999999999,0.,3.45));
#629=CARTESIAN_POINT('',(-1.,0.,0.));
#630=CARTESIAN_POINT('',(-1.,0.,2.26226963048871));
#631=CARTESIAN_POINT('',(-1.,0.,0.));
#632=CARTESIAN_POINT('',(-10.4,0.,0.));
#633=CARTESIAN_POINT('',(-10.4,0.,1.98));
#634=CARTESIAN_POINT('',(-10.4,0.,1.98));
#635=CARTESIAN_POINT('',(-10.4,0.,0.));
#636=CARTESIAN_POINT('',(-10.4,0.,1.4));
#637=CARTESIAN_POINT('',(0.,0.,0.));
#638=CARTESIAN_POINT('',(10.,0.,0.));
#639=CARTESIAN_POINT('',(10.,0.,1.4));
#640=CARTESIAN_POINT('',(10.,0.,1.4));
#641=CARTESIAN_POINT('',(10.,0.,0.));
#642=CARTESIAN_POINT('',(10.,0.,2.2));
#643=CARTESIAN_POINT('',(0.,0.,0.));
#644=CARTESIAN_POINT('',(9.7,0.,0.));
#645=CARTESIAN_POINT('',(9.7,0.,2.5));
#646=CARTESIAN_POINT('',(9.7,0.,0.));
#647=CARTESIAN_POINT('',(-1.55,2.8,24.8241439932981));
#648=CARTESIAN_POINT('',(-1.55,2.8,-24.8241439932981));
#649=CARTESIAN_POINT('',(-1.55,2.8,24.8241439932981));
#650=CARTESIAN_POINT('',(-3.35,5.8,24.8241439932981));
#651=CARTESIAN_POINT('',(-3.35,2.8,24.8241439932981));
#652=CARTESIAN_POINT('',(-3.35,2.8,-24.8241439932981));
#653=CARTESIAN_POINT('',(-3.35,2.8,24.8241439932981));
#654=CARTESIAN_POINT('',(-3.35,2.8,-24.8241439932981));
#655=CARTESIAN_POINT('',(-1.55,-5.8,24.8241439932981));
#656=CARTESIAN_POINT('',(-1.55,-2.8,24.8241439932981));
#657=CARTESIAN_POINT('',(-1.55,-2.8,-24.8241439932981));
#658=CARTESIAN_POINT('',(-1.55,-2.8,24.8241439932981));
#659=CARTESIAN_POINT('',(-3.35,-2.8,24.8241439932981));
#660=CARTESIAN_POINT('',(-3.35,-2.8,24.8241439932981));
#661=CARTESIAN_POINT('',(-3.35,-2.8,-24.8241439932981));
#662=CARTESIAN_POINT('',(-1.55,-2.8,-24.8241439932981));
#663=MECHANICAL_DESIGN_GEOMETRIC_PRESENTATION_REPRESENTATION('',(#288,#289,
#290,#291,#292,#293,#294,#295,#296,#297,#298,#299,#300,#301,#302,#303,#304,
#305,#306),#664);
#664=(
GEOMETRIC_REPRESENTATION_CONTEXT(3)
GLOBAL_UNCERTAINTY_ASSIGNED_CONTEXT((#665))
GLOBAL_UNIT_ASSIGNED_CONTEXT((#668,#667,#666))
REPRESENTATION_CONTEXT('501371_560952-M6','TOP_LEVEL_ASSEMBLY_PART')
);
#665=UNCERTAINTY_MEASURE_WITH_UNIT(LENGTH_MEASURE(0.005),#668,
'DISTANCE_ACCURACY_VALUE','Maximum Tolerance applied to model');
#666=(
NAMED_UNIT(*)
SI_UNIT($,.STERADIAN.)
SOLID_ANGLE_UNIT()
);
#667=(
NAMED_UNIT(*)
PLANE_ANGLE_UNIT()
SI_UNIT($,.RADIAN.)
);
#668=(
LENGTH_UNIT()
NAMED_UNIT(*)
SI_UNIT(.MILLI.,.METRE.)
);
#669=PRODUCT_DEFINITION_SHAPE('','',#670);
#670=PRODUCT_DEFINITION('','',#672,#671);
#671=PRODUCT_DEFINITION_CONTEXT('',#678,'design');
#672=PRODUCT_DEFINITION_FORMATION_WITH_SPECIFIED_SOURCE('','',#674,
 .NOT_KNOWN.);
#673=PRODUCT_RELATED_PRODUCT_CATEGORY('','',(#674));
#674=PRODUCT('501371_560952-M6','501371_560952-M6','501371_560952-M6',(#676));
#675=PRODUCT_CATEGORY('','');
#676=PRODUCT_CONTEXT('',#678,'mechanical');
#677=APPLICATION_PROTOCOL_DEFINITION('international standard',
'ap242_managed_model_based_3d_engineering',2011,#678);
#678=APPLICATION_CONTEXT('managed model based 3d engineering');
ENDSEC;
END-ISO-10303-21;
