ISO-10303-21;
HEADER;
FILE_DESCRIPTION( ( 'Unknown' ), '1' );
FILE_NAME( 'D:/SEdge/Teile_nach_ArtNr_Step_mit_PDF_f\X2\00FC\X0\r_Kunden/990238_Nadelheizung.stp', 'Unknown', ( 'Schwinghammer Vitus' ), ( 'Vieweg' ), 'PSStep 17.0.49', 'Solid Edge ST6', '  ' );
FILE_SCHEMA( ( 'AUTOMOTIVE_DESIGN { 1 0 10303 214 1 1 1 1 }' ) );
ENDSEC;
DATA;
#1 = MECHANICAL_DESIGN_GEOMETRIC_PRESENTATION_REPRESENTATION( ' ', ( #10, #11, #12, #13, #14, #15, #16, #17, #18, #19, #20 ), #6 );
#2 = PRODUCT_DEFINITION_CONTEXT( '', #21, 'design' );
#3 = APPLICATION_PROTOCOL_DEFINITION( 'international standard', 'automotive_design', 2001, #21 );
#4 = PRODUCT_CATEGORY_RELATIONSHIP( 'NONE', 'NONE', #22, #23 );
#5 = SHAPE_DEFINITION_REPRESENTATION( #24, #25 );
#6 =  ( GEOMETRIC_REPRESENTATION_CONTEXT( 3 )GLOBAL_UNCERTAINTY_ASSIGNED_CONTEXT( ( #28 ) )GLOBAL_UNIT_ASSIGNED_CONTEXT( ( #30, #31, #32 ) )REPRESENTATION_CONTEXT( 'NONE', 'WORKSPACE' ) );
#10 = STYLED_ITEM( '', ( #34 ), #35 );
#11 = STYLED_ITEM( '', ( #36 ), #37 );
#12 = STYLED_ITEM( '', ( #38 ), #39 );
#13 = STYLED_ITEM( '', ( #40 ), #41 );
#14 = STYLED_ITEM( '', ( #42 ), #43 );
#15 = STYLED_ITEM( '', ( #44 ), #45 );
#16 = STYLED_ITEM( '', ( #46 ), #47 );
#17 = STYLED_ITEM( '', ( #48 ), #49 );
#18 = STYLED_ITEM( '', ( #50 ), #51 );
#19 = STYLED_ITEM( '', ( #52 ), #53 );
#20 = STYLED_ITEM( '', ( #54 ), #55 );
#21 = APPLICATION_CONTEXT( 'core data for automotive mechanical design processes' );
#22 = PRODUCT_CATEGORY( 'part', 'NONE' );
#23 = PRODUCT_RELATED_PRODUCT_CATEGORY( 'detail', ' ', ( #56 ) );
#24 = PRODUCT_DEFINITION_SHAPE( 'NONE', 'NONE', #57 );
#25 = ADVANCED_BREP_SHAPE_REPRESENTATION( '1', ( #58, #59 ), #6 );
#28 = UNCERTAINTY_MEASURE_WITH_UNIT( LENGTH_MEASURE( 0.00100000000000000 ), #30, '', '' );
#30 =  ( CONVERSION_BASED_UNIT( 'MILLIMETRE', #62 )LENGTH_UNIT(  )NAMED_UNIT( #65 ) );
#31 =  ( NAMED_UNIT( #67 )PLANE_ANGLE_UNIT(  )SI_UNIT( $, .RADIAN. ) );
#32 =  ( NAMED_UNIT( #67 )SI_UNIT( $, .STERADIAN. )SOLID_ANGLE_UNIT(  ) );
#34 = PRESENTATION_STYLE_ASSIGNMENT( ( #73 ) );
#35 = ADVANCED_FACE( '', ( #74, #75 ), #76, .T. );
#36 = PRESENTATION_STYLE_ASSIGNMENT( ( #77 ) );
#37 = ADVANCED_FACE( '', ( #78, #79 ), #80, .F. );
#38 = PRESENTATION_STYLE_ASSIGNMENT( ( #81 ) );
#39 = ADVANCED_FACE( '', ( #82, #83 ), #84, .T. );
#40 = PRESENTATION_STYLE_ASSIGNMENT( ( #85 ) );
#41 = ADVANCED_FACE( '', ( #86, #87 ), #88, .F. );
#42 = PRESENTATION_STYLE_ASSIGNMENT( ( #89 ) );
#43 = ADVANCED_FACE( '', ( #90, #91 ), #92, .T. );
#44 = PRESENTATION_STYLE_ASSIGNMENT( ( #93 ) );
#45 = ADVANCED_FACE( '', ( #94, #95 ), #96, .T. );
#46 = PRESENTATION_STYLE_ASSIGNMENT( ( #97 ) );
#47 = ADVANCED_FACE( '', ( #98, #99 ), #100, .F. );
#48 = PRESENTATION_STYLE_ASSIGNMENT( ( #101 ) );
#49 = ADVANCED_FACE( '', ( #102, #103 ), #104, .F. );
#50 = PRESENTATION_STYLE_ASSIGNMENT( ( #105 ) );
#51 = ADVANCED_FACE( '', ( #106, #107 ), #108, .T. );
#52 = PRESENTATION_STYLE_ASSIGNMENT( ( #109 ) );
#53 = ADVANCED_FACE( '', ( #110, #111 ), #112, .F. );
#54 = PRESENTATION_STYLE_ASSIGNMENT( ( #113 ) );
#55 = ADVANCED_FACE( '', ( #114, #115 ), #116, .T. );
#56 = PRODUCT( '1', '1', 'PART-1-DESC', ( #117 ) );
#57 = PRODUCT_DEFINITION( 'NONE', 'NONE', #118, #2 );
#58 = MANIFOLD_SOLID_BREP( '1', #119 );
#59 = AXIS2_PLACEMENT_3D( '', #120, #121, #122 );
#62 = LENGTH_MEASURE_WITH_UNIT( LENGTH_MEASURE( 1.00000000000000 ), #123 );
#65 = DIMENSIONAL_EXPONENTS( 1.00000000000000, 0.000000000000000, 0.000000000000000, 0.000000000000000, 0.000000000000000, 0.000000000000000, 0.000000000000000 );
#67 = DIMENSIONAL_EXPONENTS( 0.000000000000000, 0.000000000000000, 0.000000000000000, 0.000000000000000, 0.000000000000000, 0.000000000000000, 0.000000000000000 );
#73 = SURFACE_STYLE_USAGE( .BOTH., #124 );
#74 = FACE_BOUND( '', #125, .T. );
#75 = FACE_OUTER_BOUND( '', #126, .T. );
#76 = PLANE( '', #127 );
#77 = SURFACE_STYLE_USAGE( .BOTH., #128 );
#78 = FACE_OUTER_BOUND( '', #129, .T. );
#79 = FACE_OUTER_BOUND( '', #130, .T. );
#80 = CYLINDRICAL_SURFACE( '', #131, 5.55000000000000 );
#81 = SURFACE_STYLE_USAGE( .BOTH., #132 );
#82 = FACE_OUTER_BOUND( '', #133, .T. );
#83 = FACE_OUTER_BOUND( '', #134, .T. );
#84 = CYLINDRICAL_SURFACE( '', #135, 11.0000000000000 );
#85 = SURFACE_STYLE_USAGE( .BOTH., #136 );
#86 = FACE_OUTER_BOUND( '', #137, .T. );
#87 = FACE_OUTER_BOUND( '', #138, .T. );
#88 = CYLINDRICAL_SURFACE( '', #139, 3.75000000000000 );
#89 = SURFACE_STYLE_USAGE( .BOTH., #140 );
#90 = FACE_OUTER_BOUND( '', #141, .T. );
#91 = FACE_BOUND( '', #142, .T. );
#92 = PLANE( '', #143 );
#93 = SURFACE_STYLE_USAGE( .BOTH., #144 );
#94 = FACE_BOUND( '', #145, .T. );
#95 = FACE_OUTER_BOUND( '', #146, .T. );
#96 = PLANE( '', #147 );
#97 = SURFACE_STYLE_USAGE( .BOTH., #148 );
#98 = FACE_BOUND( '', #149, .T. );
#99 = FACE_OUTER_BOUND( '', #150, .T. );
#100 = CONICAL_SURFACE( '', #151, 3.75000000000000, 1.02974425867665 );
#101 = SURFACE_STYLE_USAGE( .BOTH., #152 );
#102 = FACE_OUTER_BOUND( '', #153, .T. );
#103 = FACE_BOUND( '', #154, .T. );
#104 = CONICAL_SURFACE( '', #155, 5.55000000000000, 0.785398163397448 );
#105 = SURFACE_STYLE_USAGE( .BOTH., #156 );
#106 = FACE_OUTER_BOUND( '', #157, .T. );
#107 = FACE_OUTER_BOUND( '', #158, .T. );
#108 = CYLINDRICAL_SURFACE( '', #159, 2.50000000000000 );
#109 = SURFACE_STYLE_USAGE( .BOTH., #160 );
#110 = FACE_OUTER_BOUND( '', #161, .T. );
#111 = FACE_OUTER_BOUND( '', #162, .T. );
#112 = CYLINDRICAL_SURFACE( '', #163, 1.00000000000000 );
#113 = SURFACE_STYLE_USAGE( .BOTH., #164 );
#114 = FACE_BOUND( '', #165, .T. );
#115 = FACE_OUTER_BOUND( '', #166, .T. );
#116 = CONICAL_SURFACE( '', #167, 11.0000000000000, 1.28237409595725 );
#117 = PRODUCT_CONTEXT( '', #21, 'mechanical' );
#118 = PRODUCT_DEFINITION_FORMATION_WITH_SPECIFIED_SOURCE( ' ', 'NONE', #56, .NOT_KNOWN. );
#119 = CLOSED_SHELL( '', ( #47, #49, #51, #35, #53, #41, #43, #37, #45, #39, #55 ) );
#120 = CARTESIAN_POINT( '', ( 0.000000000000000, 0.000000000000000, 0.000000000000000 ) );
#121 = DIRECTION( '', ( 0.000000000000000, 0.000000000000000, 1.00000000000000 ) );
#122 = DIRECTION( '', ( 1.00000000000000, 0.000000000000000, 0.000000000000000 ) );
#123 =  ( LENGTH_UNIT(  )NAMED_UNIT( #65 )SI_UNIT( .MILLI., .METRE. ) );
#124 = SURFACE_SIDE_STYLE( '', ( #169 ) );
#125 = EDGE_LOOP( '', ( #170 ) );
#126 = EDGE_LOOP( '', ( #171 ) );
#127 = AXIS2_PLACEMENT_3D( '', #172, #173, #174 );
#128 = SURFACE_SIDE_STYLE( '', ( #175 ) );
#129 = EDGE_LOOP( '', ( #176 ) );
#130 = EDGE_LOOP( '', ( #177 ) );
#131 = AXIS2_PLACEMENT_3D( '', #178, #179, #180 );
#132 = SURFACE_SIDE_STYLE( '', ( #181 ) );
#133 = EDGE_LOOP( '', ( #182 ) );
#134 = EDGE_LOOP( '', ( #183 ) );
#135 = AXIS2_PLACEMENT_3D( '', #184, #185, #186 );
#136 = SURFACE_SIDE_STYLE( '', ( #187 ) );
#137 = EDGE_LOOP( '', ( #188 ) );
#138 = EDGE_LOOP( '', ( #189 ) );
#139 = AXIS2_PLACEMENT_3D( '', #190, #191, #192 );
#140 = SURFACE_SIDE_STYLE( '', ( #193 ) );
#141 = EDGE_LOOP( '', ( #194 ) );
#142 = EDGE_LOOP( '', ( #195 ) );
#143 = AXIS2_PLACEMENT_3D( '', #196, #197, #198 );
#144 = SURFACE_SIDE_STYLE( '', ( #199 ) );
#145 = EDGE_LOOP( '', ( #200 ) );
#146 = EDGE_LOOP( '', ( #201 ) );
#147 = AXIS2_PLACEMENT_3D( '', #202, #203, #204 );
#148 = SURFACE_SIDE_STYLE( '', ( #205 ) );
#149 = EDGE_LOOP( '', ( #206 ) );
#150 = EDGE_LOOP( '', ( #207 ) );
#151 = AXIS2_PLACEMENT_3D( '', #208, #209, #210 );
#152 = SURFACE_SIDE_STYLE( '', ( #211 ) );
#153 = EDGE_LOOP( '', ( #212 ) );
#154 = EDGE_LOOP( '', ( #213 ) );
#155 = AXIS2_PLACEMENT_3D( '', #214, #215, #216 );
#156 = SURFACE_SIDE_STYLE( '', ( #217 ) );
#157 = EDGE_LOOP( '', ( #218 ) );
#158 = EDGE_LOOP( '', ( #219 ) );
#159 = AXIS2_PLACEMENT_3D( '', #220, #221, #222 );
#160 = SURFACE_SIDE_STYLE( '', ( #223 ) );
#161 = EDGE_LOOP( '', ( #224 ) );
#162 = EDGE_LOOP( '', ( #225 ) );
#163 = AXIS2_PLACEMENT_3D( '', #226, #227, #228 );
#164 = SURFACE_SIDE_STYLE( '', ( #229 ) );
#165 = EDGE_LOOP( '', ( #230 ) );
#166 = EDGE_LOOP( '', ( #231 ) );
#167 = AXIS2_PLACEMENT_3D( '', #232, #233, #234 );
#169 = SURFACE_STYLE_FILL_AREA( #235 );
#170 = ORIENTED_EDGE( '', *, *, #236, .T. );
#171 = ORIENTED_EDGE( '', *, *, #237, .F. );
#172 = CARTESIAN_POINT( '', ( 1.00000000000000, 0.000000000000000, -8.94466792300541E-017 ) );
#173 = DIRECTION( '', ( 1.19262238973405E-016, 0.000000000000000, -1.00000000000000 ) );
#174 = DIRECTION( '', ( -1.00000000000000, 0.000000000000000, -1.19262238973405E-016 ) );
#175 = SURFACE_STYLE_FILL_AREA( #238 );
#176 = ORIENTED_EDGE( '', *, *, #239, .T. );
#177 = ORIENTED_EDGE( '', *, *, #240, .F. );
#178 = CARTESIAN_POINT( '', ( 0.000000000000000, 0.000000000000000, 0.000000000000000 ) );
#179 = DIRECTION( '', ( 1.19262238973405E-016, -0.000000000000000, -1.00000000000000 ) );
#180 = DIRECTION( '', ( 1.00000000000000, 0.000000000000000, 1.19262238973405E-016 ) );
#181 = SURFACE_STYLE_FILL_AREA( #241 );
#182 = ORIENTED_EDGE( '', *, *, #242, .T. );
#183 = ORIENTED_EDGE( '', *, *, #243, .F. );
#184 = CARTESIAN_POINT( '', ( 0.000000000000000, 0.000000000000000, 0.000000000000000 ) );
#185 = DIRECTION( '', ( 1.19262238973405E-016, -0.000000000000000, -1.00000000000000 ) );
#186 = DIRECTION( '', ( 1.00000000000000, 0.000000000000000, 1.19262238973405E-016 ) );
#187 = SURFACE_STYLE_FILL_AREA( #244 );
#188 = ORIENTED_EDGE( '', *, *, #245, .T. );
#189 = ORIENTED_EDGE( '', *, *, #246, .T. );
#190 = CARTESIAN_POINT( '', ( 0.000000000000000, 0.000000000000000, 0.000000000000000 ) );
#191 = DIRECTION( '', ( 1.19262238973405E-016, -0.000000000000000, -1.00000000000000 ) );
#192 = DIRECTION( '', ( 1.00000000000000, 0.000000000000000, 1.19262238973405E-016 ) );
#193 = SURFACE_STYLE_FILL_AREA( #247 );
#194 = ORIENTED_EDGE( '', *, *, #240, .T. );
#195 = ORIENTED_EDGE( '', *, *, #245, .F. );
#196 = CARTESIAN_POINT( '', ( 5.55000000000000, 0.000000000000000, 22.0000000000000 ) );
#197 = DIRECTION( '', ( -1.19262238973405E-016, 0.000000000000000, 1.00000000000000 ) );
#198 = DIRECTION( '', ( 1.00000000000000, 0.000000000000000, 1.19262238973405E-016 ) );
#199 = SURFACE_STYLE_FILL_AREA( #248 );
#200 = ORIENTED_EDGE( '', *, *, #249, .T. );
#201 = ORIENTED_EDGE( '', *, *, #243, .T. );
#202 = CARTESIAN_POINT( '', ( 11.0000000000000, 0.000000000000000, 33.0000000000000 ) );
#203 = DIRECTION( '', ( -1.19262238973405E-016, 0.000000000000000, 1.00000000000000 ) );
#204 = DIRECTION( '', ( 1.00000000000000, 0.000000000000000, 1.19262238973405E-016 ) );
#205 = SURFACE_STYLE_FILL_AREA( #250 );
#206 = ORIENTED_EDGE( '', *, *, #251, .T. );
#207 = ORIENTED_EDGE( '', *, *, #246, .F. );
#208 = CARTESIAN_POINT( '', ( -7.04731412115578E-016, 0.000000000000000, 8.00000000000000 ) );
#209 = DIRECTION( '', ( -1.19262238973405E-016, 0.000000000000000, 1.00000000000000 ) );
#210 = DIRECTION( '', ( -1.00000000000000, 0.000000000000000, -1.19262238973405E-016 ) );
#211 = SURFACE_STYLE_FILL_AREA( #252 );
#212 = ORIENTED_EDGE( '', *, *, #249, .F. );
#213 = ORIENTED_EDGE( '', *, *, #239, .F. );
#214 = CARTESIAN_POINT( '', ( -3.81639164714897E-015, 0.000000000000000, 32.0000000000000 ) );
#215 = DIRECTION( '', ( -1.19262238973405E-016, 0.000000000000000, 1.00000000000000 ) );
#216 = DIRECTION( '', ( 1.00000000000000, 0.000000000000000, 1.19262238973405E-016 ) );
#217 = SURFACE_STYLE_FILL_AREA( #253 );
#218 = ORIENTED_EDGE( '', *, *, #237, .T. );
#219 = ORIENTED_EDGE( '', *, *, #254, .F. );
#220 = CARTESIAN_POINT( '', ( 0.000000000000000, 0.000000000000000, 0.000000000000000 ) );
#221 = DIRECTION( '', ( 1.19262238973405E-016, -0.000000000000000, -1.00000000000000 ) );
#222 = DIRECTION( '', ( 1.00000000000000, 0.000000000000000, 1.19262238973405E-016 ) );
#223 = SURFACE_STYLE_FILL_AREA( #255 );
#224 = ORIENTED_EDGE( '', *, *, #251, .F. );
#225 = ORIENTED_EDGE( '', *, *, #236, .F. );
#226 = CARTESIAN_POINT( '', ( 0.000000000000000, 0.000000000000000, 0.000000000000000 ) );
#227 = DIRECTION( '', ( 1.19262238973405E-016, -0.000000000000000, -1.00000000000000 ) );
#228 = DIRECTION( '', ( 1.00000000000000, 0.000000000000000, 1.19262238973405E-016 ) );
#229 = SURFACE_STYLE_FILL_AREA( #256 );
#230 = ORIENTED_EDGE( '', *, *, #254, .T. );
#231 = ORIENTED_EDGE( '', *, *, #242, .F. );
#232 = CARTESIAN_POINT( '', ( -8.97079858211841E-016, 0.000000000000000, 7.52191025368795 ) );
#233 = DIRECTION( '', ( -1.19262238973405E-016, 0.000000000000000, 1.00000000000000 ) );
#234 = DIRECTION( '', ( 1.00000000000000, 0.000000000000000, 1.19262238973405E-016 ) );
#235 = FILL_AREA_STYLE( '', ( #257 ) );
#236 = EDGE_CURVE( '', #258, #258, #259, .T. );
#237 = EDGE_CURVE( '', #260, #260, #261, .T. );
#238 = FILL_AREA_STYLE( '', ( #262 ) );
#239 = EDGE_CURVE( '', #263, #263, #264, .T. );
#240 = EDGE_CURVE( '', #265, #265, #266, .T. );
#241 = FILL_AREA_STYLE( '', ( #267 ) );
#242 = EDGE_CURVE( '', #268, #268, #269, .T. );
#243 = EDGE_CURVE( '', #270, #270, #271, .T. );
#244 = FILL_AREA_STYLE( '', ( #272 ) );
#245 = EDGE_CURVE( '', #273, #273, #274, .T. );
#246 = EDGE_CURVE( '', #275, #275, #276, .T. );
#247 = FILL_AREA_STYLE( '', ( #277 ) );
#248 = FILL_AREA_STYLE( '', ( #278 ) );
#249 = EDGE_CURVE( '', #279, #279, #280, .F. );
#250 = FILL_AREA_STYLE( '', ( #281 ) );
#251 = EDGE_CURVE( '', #282, #282, #283, .F. );
#252 = FILL_AREA_STYLE( '', ( #284 ) );
#253 = FILL_AREA_STYLE( '', ( #285 ) );
#254 = EDGE_CURVE( '', #286, #286, #287, .T. );
#255 = FILL_AREA_STYLE( '', ( #288 ) );
#256 = FILL_AREA_STYLE( '', ( #289 ) );
#257 = FILL_AREA_STYLE_COLOUR( '', #290 );
#258 = VERTEX_POINT( '', #291 );
#259 = CIRCLE( '', #292, 1.00000000000000 );
#260 = VERTEX_POINT( '', #293 );
#261 = CIRCLE( '', #294, 2.50000000000000 );
#262 = FILL_AREA_STYLE_COLOUR( '', #295 );
#263 = VERTEX_POINT( '', #296 );
#264 = CIRCLE( '', #297, 5.55000000000000 );
#265 = VERTEX_POINT( '', #298 );
#266 = CIRCLE( '', #299, 5.55000000000000 );
#267 = FILL_AREA_STYLE_COLOUR( '', #300 );
#268 = VERTEX_POINT( '', #301 );
#269 = CIRCLE( '', #302, 11.0000000000000 );
#270 = VERTEX_POINT( '', #303 );
#271 = CIRCLE( '', #304, 11.0000000000000 );
#272 = FILL_AREA_STYLE_COLOUR( '', #305 );
#273 = VERTEX_POINT( '', #306 );
#274 = CIRCLE( '', #307, 3.75000000000000 );
#275 = VERTEX_POINT( '', #308 );
#276 = CIRCLE( '', #309, 3.75000000000000 );
#277 = FILL_AREA_STYLE_COLOUR( '', #310 );
#278 = FILL_AREA_STYLE_COLOUR( '', #311 );
#279 = VERTEX_POINT( '', #312 );
#280 = CIRCLE( '', #313, 6.55000000000000 );
#281 = FILL_AREA_STYLE_COLOUR( '', #314 );
#282 = VERTEX_POINT( '', #315 );
#283 = CIRCLE( '', #316, 1.00000000000000 );
#284 = FILL_AREA_STYLE_COLOUR( '', #317 );
#285 = FILL_AREA_STYLE_COLOUR( '', #318 );
#286 = VERTEX_POINT( '', #319 );
#287 = CIRCLE( '', #320, 2.50000000000000 );
#288 = FILL_AREA_STYLE_COLOUR( '', #321 );
#289 = FILL_AREA_STYLE_COLOUR( '', #322 );
#290 = COLOUR_RGB( '', 0.898039221763611, 0.000000000000000, 0.000000000000000 );
#291 = CARTESIAN_POINT( '', ( 1.00000000000000, 0.000000000000000, 0.000000000000000 ) );
#292 = AXIS2_PLACEMENT_3D( '', #323, #324, #325 );
#293 = CARTESIAN_POINT( '', ( 2.50000000000000, 0.000000000000000, 0.000000000000000 ) );
#294 = AXIS2_PLACEMENT_3D( '', #326, #327, #328 );
#295 = COLOUR_RGB( '', 0.898039221763611, 0.000000000000000, 0.000000000000000 );
#296 = CARTESIAN_POINT( '', ( 5.55000000000000, 0.000000000000000, 32.0000000000000 ) );
#297 = AXIS2_PLACEMENT_3D( '', #329, #330, #331 );
#298 = CARTESIAN_POINT( '', ( 5.55000000000000, 0.000000000000000, 22.0000000000000 ) );
#299 = AXIS2_PLACEMENT_3D( '', #332, #333, #334 );
#300 = COLOUR_RGB( '', 0.898039221763611, 0.000000000000000, 0.000000000000000 );
#301 = CARTESIAN_POINT( '', ( 11.0000000000000, 0.000000000000000, 7.52191025368795 ) );
#302 = AXIS2_PLACEMENT_3D( '', #335, #336, #337 );
#303 = CARTESIAN_POINT( '', ( 11.0000000000000, 0.000000000000000, 33.0000000000000 ) );
#304 = AXIS2_PLACEMENT_3D( '', #338, #339, #340 );
#305 = COLOUR_RGB( '', 0.898039221763611, 0.000000000000000, 0.000000000000000 );
#306 = CARTESIAN_POINT( '', ( 3.75000000000000, 0.000000000000000, 22.0000000000000 ) );
#307 = AXIS2_PLACEMENT_3D( '', #341, #342, #343 );
#308 = CARTESIAN_POINT( '', ( -3.75000000000000, 0.000000000000000, 8.00000000000000 ) );
#309 = AXIS2_PLACEMENT_3D( '', #344, #345, #346 );
#310 = COLOUR_RGB( '', 0.898039221763611, 0.000000000000000, 0.000000000000000 );
#311 = COLOUR_RGB( '', 0.898039221763611, 0.000000000000000, 0.000000000000000 );
#312 = CARTESIAN_POINT( '', ( 6.55000000000000, 0.000000000000000, 33.0000000000000 ) );
#313 = AXIS2_PLACEMENT_3D( '', #347, #348, #349 );
#314 = COLOUR_RGB( '', 0.898039221763611, 0.000000000000000, 0.000000000000000 );
#315 = CARTESIAN_POINT( '', ( 1.00000000000000, 0.000000000000000, 6.34763329767421 ) );
#316 = AXIS2_PLACEMENT_3D( '', #350, #351, #352 );
#317 = COLOUR_RGB( '', 0.898039221763611, 0.000000000000000, 0.000000000000000 );
#318 = COLOUR_RGB( '', 0.898039221763611, 0.000000000000000, 0.000000000000000 );
#319 = CARTESIAN_POINT( '', ( 2.50000000000000, 0.000000000000000, 5.00000000000000 ) );
#320 = AXIS2_PLACEMENT_3D( '', #353, #354, #355 );
#321 = COLOUR_RGB( '', 0.898039221763611, 0.000000000000000, 0.000000000000000 );
#322 = COLOUR_RGB( '', 0.898039221763611, 0.000000000000000, 0.000000000000000 );
#323 = CARTESIAN_POINT( '', ( 1.42234816449497E-032, 0.000000000000000, -1.19262238973405E-016 ) );
#324 = DIRECTION( '', ( -1.19262238973405E-016, 0.000000000000000, 1.00000000000000 ) );
#325 = DIRECTION( '', ( 1.00000000000000, 0.000000000000000, 1.19262238973405E-016 ) );
#326 = CARTESIAN_POINT( '', ( 3.55587041123742E-032, 0.000000000000000, -2.98155597433513E-016 ) );
#327 = DIRECTION( '', ( -1.19262238973405E-016, 0.000000000000000, 1.00000000000000 ) );
#328 = DIRECTION( '', ( 1.00000000000000, 0.000000000000000, 1.19262238973405E-016 ) );
#329 = CARTESIAN_POINT( '', ( -3.81639164714897E-015, 0.000000000000000, 32.0000000000000 ) );
#330 = DIRECTION( '', ( -1.19262238973405E-016, 0.000000000000000, 1.00000000000000 ) );
#331 = DIRECTION( '', ( 1.00000000000000, 0.000000000000000, 1.19262238973405E-016 ) );
#332 = CARTESIAN_POINT( '', ( -2.62376925741492E-015, 0.000000000000000, 22.0000000000000 ) );
#333 = DIRECTION( '', ( -1.19262238973405E-016, 0.000000000000000, 1.00000000000000 ) );
#334 = DIRECTION( '', ( 1.00000000000000, 0.000000000000000, 1.19262238973405E-016 ) );
#335 = CARTESIAN_POINT( '', ( -8.97079858211841E-016, 0.000000000000000, 7.52191025368795 ) );
#336 = DIRECTION( '', ( -1.19262238973405E-016, 0.000000000000000, 1.00000000000000 ) );
#337 = DIRECTION( '', ( 1.00000000000000, 0.000000000000000, 1.19262238973405E-016 ) );
#338 = CARTESIAN_POINT( '', ( -3.93565388612238E-015, 0.000000000000000, 33.0000000000000 ) );
#339 = DIRECTION( '', ( -1.19262238973405E-016, 0.000000000000000, 1.00000000000000 ) );
#340 = DIRECTION( '', ( 1.00000000000000, 0.000000000000000, 1.19262238973405E-016 ) );
#341 = CARTESIAN_POINT( '', ( -2.62376925741492E-015, 0.000000000000000, 22.0000000000000 ) );
#342 = DIRECTION( '', ( -1.19262238973405E-016, 0.000000000000000, 1.00000000000000 ) );
#343 = DIRECTION( '', ( 1.00000000000000, 0.000000000000000, 1.19262238973405E-016 ) );
#344 = CARTESIAN_POINT( '', ( -7.04731412115578E-016, 0.000000000000000, 8.00000000000000 ) );
#345 = DIRECTION( '', ( 1.19262238973405E-016, 0.000000000000000, -1.00000000000000 ) );
#346 = DIRECTION( '', ( -1.00000000000000, 0.000000000000000, -1.19262238973405E-016 ) );
#347 = CARTESIAN_POINT( '', ( -3.93565388612238E-015, 0.000000000000000, 33.0000000000000 ) );
#348 = DIRECTION( '', ( -1.19262238973405E-016, 0.000000000000000, 1.00000000000000 ) );
#349 = DIRECTION( '', ( 1.00000000000000, 0.000000000000000, 1.19262238973405E-016 ) );
#350 = CARTESIAN_POINT( '', ( -5.07666459591102E-016, 0.000000000000000, 6.34763329767421 ) );
#351 = DIRECTION( '', ( -1.19262238973405E-016, 0.000000000000000, 1.00000000000000 ) );
#352 = DIRECTION( '', ( 1.00000000000000, 0.000000000000000, 1.19262238973405E-016 ) );
#353 = CARTESIAN_POINT( '', ( -5.96311194867027E-016, 0.000000000000000, 5.00000000000000 ) );
#354 = DIRECTION( '', ( -1.19262238973405E-016, 0.000000000000000, 1.00000000000000 ) );
#355 = DIRECTION( '', ( 1.00000000000000, 0.000000000000000, 1.19262238973405E-016 ) );
ENDSEC;
END-ISO-10303-21;
