ISO-10303-21;
HEADER;
/* Generated by software containing ST-Developer
 * from STEP Tools, Inc. (www.steptools.com) 
 */
/* OPTION: strings as raw bytes, not using required /X/ escapes */

FILE_DESCRIPTION(
/* description */ ('Unknown'),
/* implementation_level */ '2;1');

FILE_NAME(
/* name */ '560063S_360ml_Semco_Kartusche',
/* time_stamp */ '2023-06-05T11:57:19+02:00',
/* author */ ('Unknown'),
/* organization */ ('Unknown'),
/* preprocessor_version */ 'ST-DEVELOPER v16.7',
/* originating_system */ 'Solid Edge',
/* authorisation */ 'Unknown');

FILE_SCHEMA (('AUTOMOTIVE_DESIGN {1 0 10303 214 3 1 1}'));
ENDSEC;

DATA;
#10=PROPERTY_DEFINITION_REPRESENTATION(#14,#12);
#11=PROPERTY_DEFINITION_REPRESENTATION(#15,#13);
#12=REPRESENTATION('',(#16),#299);
#13=REPRESENTATION('',(#17),#299);
#14=PROPERTY_DEFINITION('pmi validation property','',#304);
#15=PROPERTY_DEFINITION('pmi validation property','',#304);
#16=VALUE_REPRESENTATION_ITEM('number of annotations',COUNT_MEASURE(0.));
#17=VALUE_REPRESENTATION_ITEM('number of views',COUNT_MEASURE(0.));
#18=SHAPE_REPRESENTATION_RELATIONSHIP('','',#176,#19);
#19=ADVANCED_BREP_SHAPE_REPRESENTATION('',(#174),#299);
#20=DEGENERATE_TOROIDAL_SURFACE('',#183,2.60871758657497,20.,.T.);
#21=DEGENERATE_TOROIDAL_SURFACE('',#197,2.60871758657497,19.,.T.);
#22=CYLINDRICAL_SURFACE('',#181,21.4);
#23=CYLINDRICAL_SURFACE('',#185,9.30000000000001);
#24=CYLINDRICAL_SURFACE('',#189,9.65);
#25=CYLINDRICAL_SURFACE('',#193,6.6);
#26=CYLINDRICAL_SURFACE('',#199,20.4);
#27=CYLINDRICAL_SURFACE('',#203,22.9);
#28=ORIENTED_EDGE('',*,*,#54,.F.);
#29=ORIENTED_EDGE('',*,*,#55,.T.);
#30=ORIENTED_EDGE('',*,*,#56,.F.);
#31=ORIENTED_EDGE('',*,*,#54,.T.);
#32=ORIENTED_EDGE('',*,*,#57,.F.);
#33=ORIENTED_EDGE('',*,*,#56,.T.);
#34=ORIENTED_EDGE('',*,*,#58,.F.);
#35=ORIENTED_EDGE('',*,*,#57,.T.);
#36=ORIENTED_EDGE('',*,*,#59,.F.);
#37=ORIENTED_EDGE('',*,*,#58,.T.);
#38=ORIENTED_EDGE('',*,*,#60,.F.);
#39=ORIENTED_EDGE('',*,*,#59,.T.);
#40=ORIENTED_EDGE('',*,*,#61,.F.);
#41=ORIENTED_EDGE('',*,*,#60,.T.);
#42=ORIENTED_EDGE('',*,*,#62,.F.);
#43=ORIENTED_EDGE('',*,*,#61,.T.);
#44=ORIENTED_EDGE('',*,*,#63,.F.);
#45=ORIENTED_EDGE('',*,*,#62,.T.);
#46=ORIENTED_EDGE('',*,*,#64,.F.);
#47=ORIENTED_EDGE('',*,*,#63,.T.);
#48=ORIENTED_EDGE('',*,*,#65,.F.);
#49=ORIENTED_EDGE('',*,*,#64,.T.);
#50=ORIENTED_EDGE('',*,*,#66,.F.);
#51=ORIENTED_EDGE('',*,*,#65,.T.);
#52=ORIENTED_EDGE('',*,*,#55,.F.);
#53=ORIENTED_EDGE('',*,*,#66,.T.);
#54=EDGE_CURVE('',#67,#67,#80,.T.);
#55=EDGE_CURVE('',#68,#68,#81,.T.);
#56=EDGE_CURVE('',#69,#69,#82,.T.);
#57=EDGE_CURVE('',#70,#70,#83,.T.);
#58=EDGE_CURVE('',#71,#71,#84,.T.);
#59=EDGE_CURVE('',#72,#72,#85,.T.);
#60=EDGE_CURVE('',#73,#73,#86,.T.);
#61=EDGE_CURVE('',#74,#74,#87,.T.);
#62=EDGE_CURVE('',#75,#75,#88,.T.);
#63=EDGE_CURVE('',#76,#76,#89,.T.);
#64=EDGE_CURVE('',#77,#77,#90,.T.);
#65=EDGE_CURVE('',#78,#78,#91,.T.);
#66=EDGE_CURVE('',#79,#79,#92,.T.);
#67=VERTEX_POINT('',#261);
#68=VERTEX_POINT('',#263);
#69=VERTEX_POINT('',#266);
#70=VERTEX_POINT('',#269);
#71=VERTEX_POINT('',#272);
#72=VERTEX_POINT('',#275);
#73=VERTEX_POINT('',#278);
#74=VERTEX_POINT('',#281);
#75=VERTEX_POINT('',#284);
#76=VERTEX_POINT('',#287);
#77=VERTEX_POINT('',#290);
#78=VERTEX_POINT('',#293);
#79=VERTEX_POINT('',#296);
#80=CIRCLE('',#179,21.4);
#81=CIRCLE('',#180,22.9);
#82=CIRCLE('',#182,21.4);
#83=CIRCLE('',#184,9.30000000000002);
#84=CIRCLE('',#186,9.3);
#85=CIRCLE('',#188,9.65);
#86=CIRCLE('',#190,9.65);
#87=CIRCLE('',#192,6.6);
#88=CIRCLE('',#194,6.6);
#89=CIRCLE('',#196,4.50547637365807);
#90=CIRCLE('',#198,20.3999999999999);
#91=CIRCLE('',#200,20.4);
#92=CIRCLE('',#202,22.9);
#93=EDGE_LOOP('',(#28));
#94=EDGE_LOOP('',(#29));
#95=EDGE_LOOP('',(#30));
#96=EDGE_LOOP('',(#31));
#97=EDGE_LOOP('',(#32));
#98=EDGE_LOOP('',(#33));
#99=EDGE_LOOP('',(#34));
#100=EDGE_LOOP('',(#35));
#101=EDGE_LOOP('',(#36));
#102=EDGE_LOOP('',(#37));
#103=EDGE_LOOP('',(#38));
#104=EDGE_LOOP('',(#39));
#105=EDGE_LOOP('',(#40));
#106=EDGE_LOOP('',(#41));
#107=EDGE_LOOP('',(#42));
#108=EDGE_LOOP('',(#43));
#109=EDGE_LOOP('',(#44));
#110=EDGE_LOOP('',(#45));
#111=EDGE_LOOP('',(#46));
#112=EDGE_LOOP('',(#47));
#113=EDGE_LOOP('',(#48));
#114=EDGE_LOOP('',(#49));
#115=EDGE_LOOP('',(#50));
#116=EDGE_LOOP('',(#51));
#117=EDGE_LOOP('',(#52));
#118=EDGE_LOOP('',(#53));
#119=FACE_BOUND('',#93,.T.);
#120=FACE_BOUND('',#94,.T.);
#121=FACE_BOUND('',#95,.T.);
#122=FACE_BOUND('',#96,.T.);
#123=FACE_BOUND('',#97,.T.);
#124=FACE_BOUND('',#98,.T.);
#125=FACE_BOUND('',#99,.T.);
#126=FACE_BOUND('',#100,.T.);
#127=FACE_BOUND('',#101,.T.);
#128=FACE_BOUND('',#102,.T.);
#129=FACE_BOUND('',#103,.T.);
#130=FACE_BOUND('',#104,.T.);
#131=FACE_BOUND('',#105,.T.);
#132=FACE_BOUND('',#106,.T.);
#133=FACE_BOUND('',#107,.T.);
#134=FACE_BOUND('',#108,.T.);
#135=FACE_BOUND('',#109,.T.);
#136=FACE_BOUND('',#110,.T.);
#137=FACE_BOUND('',#111,.T.);
#138=FACE_BOUND('',#112,.T.);
#139=FACE_BOUND('',#113,.T.);
#140=FACE_BOUND('',#114,.T.);
#141=FACE_BOUND('',#115,.T.);
#142=FACE_BOUND('',#116,.T.);
#143=FACE_BOUND('',#117,.T.);
#144=FACE_BOUND('',#118,.T.);
#145=PLANE('',#178);
#146=PLANE('',#187);
#147=PLANE('',#191);
#148=PLANE('',#195);
#149=PLANE('',#201);
#150=ADVANCED_FACE('',(#119,#120),#145,.F.);
#151=ADVANCED_FACE('',(#121,#122),#22,.T.);
#152=ADVANCED_FACE('',(#123,#124),#20,.T.);
#153=ADVANCED_FACE('',(#125,#126),#23,.T.);
#154=ADVANCED_FACE('',(#127,#128),#146,.F.);
#155=ADVANCED_FACE('',(#129,#130),#24,.T.);
#156=ADVANCED_FACE('',(#131,#132),#147,.F.);
#157=ADVANCED_FACE('',(#133,#134),#25,.F.);
#158=ADVANCED_FACE('',(#135,#136),#148,.F.);
#159=ADVANCED_FACE('',(#137,#138),#21,.F.);
#160=ADVANCED_FACE('',(#139,#140),#26,.F.);
#161=ADVANCED_FACE('',(#141,#142),#149,.F.);
#162=ADVANCED_FACE('',(#143,#144),#27,.T.);
#163=CLOSED_SHELL('',(#150,#151,#152,#153,#154,#155,#156,#157,#158,#159,
#160,#161,#162));
#164=STYLED_ITEM('',(#165),#174);
#165=PRESENTATION_STYLE_ASSIGNMENT((#166));
#166=SURFACE_STYLE_USAGE(.BOTH.,#167);
#167=SURFACE_SIDE_STYLE('',(#170,#168));
#168=SURFACE_STYLE_RENDERING_WITH_PROPERTIES(.CONSTANT_SHADING.,#173,(#169));
#169=SURFACE_STYLE_TRANSPARENT(0.699999988079071);
#170=SURFACE_STYLE_FILL_AREA(#171);
#171=FILL_AREA_STYLE('',(#172));
#172=FILL_AREA_STYLE_COLOUR('',#173);
#173=DRAUGHTING_PRE_DEFINED_COLOUR('white');
#174=MANIFOLD_SOLID_BREP('',#163);
#175=SHAPE_DEFINITION_REPRESENTATION(#304,#176);
#176=SHAPE_REPRESENTATION('560063S_360ml_Semco_Kartusche',(#177),#299);
#177=AXIS2_PLACEMENT_3D('',#258,#204,#205);
#178=AXIS2_PLACEMENT_3D('',#259,#206,#207);
#179=AXIS2_PLACEMENT_3D('',#260,#208,#209);
#180=AXIS2_PLACEMENT_3D('',#262,#210,#211);
#181=AXIS2_PLACEMENT_3D('',#264,#212,#213);
#182=AXIS2_PLACEMENT_3D('',#265,#214,#215);
#183=AXIS2_PLACEMENT_3D('',#267,#216,#217);
#184=AXIS2_PLACEMENT_3D('',#268,#218,#219);
#185=AXIS2_PLACEMENT_3D('',#270,#220,#221);
#186=AXIS2_PLACEMENT_3D('',#271,#222,#223);
#187=AXIS2_PLACEMENT_3D('',#273,#224,#225);
#188=AXIS2_PLACEMENT_3D('',#274,#226,#227);
#189=AXIS2_PLACEMENT_3D('',#276,#228,#229);
#190=AXIS2_PLACEMENT_3D('',#277,#230,#231);
#191=AXIS2_PLACEMENT_3D('',#279,#232,#233);
#192=AXIS2_PLACEMENT_3D('',#280,#234,#235);
#193=AXIS2_PLACEMENT_3D('',#282,#236,#237);
#194=AXIS2_PLACEMENT_3D('',#283,#238,#239);
#195=AXIS2_PLACEMENT_3D('',#285,#240,#241);
#196=AXIS2_PLACEMENT_3D('',#286,#242,#243);
#197=AXIS2_PLACEMENT_3D('',#288,#244,#245);
#198=AXIS2_PLACEMENT_3D('',#289,#246,#247);
#199=AXIS2_PLACEMENT_3D('',#291,#248,#249);
#200=AXIS2_PLACEMENT_3D('',#292,#250,#251);
#201=AXIS2_PLACEMENT_3D('',#294,#252,#253);
#202=AXIS2_PLACEMENT_3D('',#295,#254,#255);
#203=AXIS2_PLACEMENT_3D('',#297,#256,#257);
#204=DIRECTION('',(0.,0.,1.));
#205=DIRECTION('',(1.,0.,0.));
#206=DIRECTION('',(1.,0.,0.));
#207=DIRECTION('',(0.,0.,-1.));
#208=DIRECTION('',(-1.,0.,0.));
#209=DIRECTION('',(0.,0.,1.));
#210=DIRECTION('',(-1.,0.,0.));
#211=DIRECTION('',(0.,0.,1.));
#212=DIRECTION('',(-1.,0.,0.));
#213=DIRECTION('',(0.,0.,1.));
#214=DIRECTION('',(-1.,0.,0.));
#215=DIRECTION('',(0.,0.,1.));
#216=DIRECTION('',(-1.,0.,0.));
#217=DIRECTION('',(0.,0.,1.));
#218=DIRECTION('',(-1.,0.,0.));
#219=DIRECTION('',(0.,0.,1.));
#220=DIRECTION('',(-1.,0.,0.));
#221=DIRECTION('',(0.,0.,1.));
#222=DIRECTION('',(-1.,0.,0.));
#223=DIRECTION('',(0.,0.,1.));
#224=DIRECTION('',(-1.,0.,0.));
#225=DIRECTION('',(0.,0.,1.));
#226=DIRECTION('',(-1.,0.,0.));
#227=DIRECTION('',(0.,0.,1.));
#228=DIRECTION('',(-1.,0.,0.));
#229=DIRECTION('',(0.,0.,1.));
#230=DIRECTION('',(-1.,0.,0.));
#231=DIRECTION('',(0.,0.,1.));
#232=DIRECTION('',(1.,0.,0.));
#233=DIRECTION('',(0.,0.,-1.));
#234=DIRECTION('',(-1.,0.,0.));
#235=DIRECTION('',(0.,0.,1.));
#236=DIRECTION('',(-1.,0.,0.));
#237=DIRECTION('',(0.,0.,1.));
#238=DIRECTION('',(-1.,0.,0.));
#239=DIRECTION('',(0.,0.,1.));
#240=DIRECTION('',(1.,0.,0.));
#241=DIRECTION('',(0.,0.,-1.));
#242=DIRECTION('',(-1.,0.,0.));
#243=DIRECTION('',(0.,0.,1.));
#244=DIRECTION('',(-1.,0.,0.));
#245=DIRECTION('',(0.,0.,1.));
#246=DIRECTION('',(-1.,0.,0.));
#247=DIRECTION('',(0.,0.,1.));
#248=DIRECTION('',(-1.,0.,0.));
#249=DIRECTION('',(0.,0.,1.));
#250=DIRECTION('',(-1.,0.,0.));
#251=DIRECTION('',(0.,0.,1.));
#252=DIRECTION('',(-1.,0.,0.));
#253=DIRECTION('',(0.,0.,1.));
#254=DIRECTION('',(-1.,0.,0.));
#255=DIRECTION('',(0.,0.,1.));
#256=DIRECTION('',(-1.,0.,0.));
#257=DIRECTION('',(0.,0.,1.));
#258=CARTESIAN_POINT('',(0.,0.,0.));
#259=CARTESIAN_POINT('',(-1.8,0.,22.9));
#260=CARTESIAN_POINT('',(-1.8,0.,0.));
#261=CARTESIAN_POINT('',(-1.8,0.,21.4));
#262=CARTESIAN_POINT('',(-1.8,0.,0.));
#263=CARTESIAN_POINT('',(-1.8,0.,22.9));
#264=CARTESIAN_POINT('',(0.,0.,0.));
#265=CARTESIAN_POINT('',(-284.,0.,0.));
#266=CARTESIAN_POINT('',(-284.,0.,21.4));
#267=CARTESIAN_POINT('',(-277.15254023313,0.,0.));
#268=CARTESIAN_POINT('',(-296.,0.,0.));
#269=CARTESIAN_POINT('',(-296.,0.,9.30000000000002));
#270=CARTESIAN_POINT('',(0.,0.,0.));
#271=CARTESIAN_POINT('',(-309.5,0.,0.));
#272=CARTESIAN_POINT('',(-309.5,0.,9.3));
#273=CARTESIAN_POINT('',(-309.5,0.,9.65));
#274=CARTESIAN_POINT('',(-309.5,0.,0.));
#275=CARTESIAN_POINT('',(-309.5,0.,9.65));
#276=CARTESIAN_POINT('',(0.,0.,0.));
#277=CARTESIAN_POINT('',(-311.,0.,0.));
#278=CARTESIAN_POINT('',(-311.,0.,9.65));
#279=CARTESIAN_POINT('',(-311.,0.,9.65));
#280=CARTESIAN_POINT('',(-311.,0.,0.));
#281=CARTESIAN_POINT('',(-311.,0.,6.6));
#282=CARTESIAN_POINT('',(0.,0.,0.));
#283=CARTESIAN_POINT('',(-296.057627011657,0.,0.));
#284=CARTESIAN_POINT('',(-296.057627011657,0.,6.6));
#285=CARTESIAN_POINT('',(-296.057627011657,0.,4.50547637365807));
#286=CARTESIAN_POINT('',(-296.057627011657,0.,0.));
#287=CARTESIAN_POINT('',(-296.057627011657,0.,4.50547637365807));
#288=CARTESIAN_POINT('',(-277.15254023313,0.,0.));
#289=CARTESIAN_POINT('',(-283.821143541601,0.,0.));
#290=CARTESIAN_POINT('',(-283.821143541601,0.,20.3999999999999));
#291=CARTESIAN_POINT('',(0.,0.,0.));
#292=CARTESIAN_POINT('',(0.,0.,0.));
#293=CARTESIAN_POINT('',(0.,0.,20.4));
#294=CARTESIAN_POINT('',(0.,0.,20.4));
#295=CARTESIAN_POINT('',(0.,0.,0.));
#296=CARTESIAN_POINT('',(0.,0.,22.9));
#297=CARTESIAN_POINT('',(0.,0.,0.));
#298=MECHANICAL_DESIGN_GEOMETRIC_PRESENTATION_REPRESENTATION('',(#164),
#299);
#299=(
GEOMETRIC_REPRESENTATION_CONTEXT(3)
GLOBAL_UNCERTAINTY_ASSIGNED_CONTEXT((#300))
GLOBAL_UNIT_ASSIGNED_CONTEXT((#303,#302,#301))
REPRESENTATION_CONTEXT('560063S_360ml_Semco_Kartusche',
'TOP_LEVEL_ASSEMBLY_PART')
);
#300=UNCERTAINTY_MEASURE_WITH_UNIT(LENGTH_MEASURE(0.005),#303,
'DISTANCE_ACCURACY_VALUE','Maximum Tolerance applied to model');
#301=(
NAMED_UNIT(*)
SI_UNIT($,.STERADIAN.)
SOLID_ANGLE_UNIT()
);
#302=(
NAMED_UNIT(*)
PLANE_ANGLE_UNIT()
SI_UNIT($,.RADIAN.)
);
#303=(
LENGTH_UNIT()
NAMED_UNIT(*)
SI_UNIT(.MILLI.,.METRE.)
);
#304=PRODUCT_DEFINITION_SHAPE('','',#305);
#305=PRODUCT_DEFINITION('','',#307,#306);
#306=PRODUCT_DEFINITION_CONTEXT('',#313,'design');
#307=PRODUCT_DEFINITION_FORMATION_WITH_SPECIFIED_SOURCE('','',#309,
 .NOT_KNOWN.);
#308=PRODUCT_RELATED_PRODUCT_CATEGORY('','',(#309));
#309=PRODUCT('560063S_360ml_Semco_Kartusche',
'560063S_360ml_Semco_Kartusche','560063S_360ml_Semco_Kartusche',(#311));
#310=PRODUCT_CATEGORY('','');
#311=PRODUCT_CONTEXT('',#313,'mechanical');
#312=APPLICATION_PROTOCOL_DEFINITION('international standard',
'automotive_design',2010,#313);
#313=APPLICATION_CONTEXT(
'core data for automotive mechanical design processes');
ENDSEC;
END-ISO-10303-21;
